View Single Post
Old January 29th, 2005, 07:13 PM   #6 (permalink)
timroth-intoeternity
Member
 
timroth-intoeternity's Avatar
 
Join Date: Jan 2005
Location: Regina,Saskatchewan/Canada
Posts: 53
Isolation

* guitar tuned down 2 steps to C *


** This is the neat little interlude in Isolation from 2:43 to 3:06 . The harmony guitar comes in after and harmonizes 2 of the licks. That is done with thirds. This is just my part that I play. **

, Tim

ISOLATION

---0---5---7---8-----------------------------------------------------------
---------------------0---5---7---8------------5---7---8---7---5---4------
---------------------------------------0---4------------------------------
---------------------------------------------------------------------------
---------------------------------------------------------------------------
---------------------------------------------------------------------------


---0---5---7---8----------------------10---9---7-------------------12----
---------------------0---5---7---8-------------------10---9---7-----------
---------------------------------------------------------------------------
---------------------------------------------------------------------------
---------------------------------------------------------------------------
---------------------------------------------------------------------------


---0---5---7---8-----------------------------------------------------------
---------------------0---5---7---8------------5---7---8---7---5---4------
---------------------------------------0---4------------------------------
---------------------------------------------------------------------------
---------------------------------------------------------------------------
---------------------------------------------------------------------------



---0---5---7---8----------------------10---8---7---------------------------
---------------------0---5---7---8-------------------10---8---7------------
----------------------------------------------------------------------9----
---------------------------------------------------------------------------
---------------------------------------------------------------------------
---------------------------------------------------------------------------
timroth-intoeternity is offline