LORD  

Go Back   Ultimate Metal Forum > Official Metal Band Forums > LORD
Register FAQ Donate Members List Calendar Mark Forums Read

LORD Ex-Dungeon

Reply
 
LinkBack Thread Tools
Old September 8th, 2009, 12:15 AM   #51 (permalink)
Aussie_Metalchild
Lil Aussie Headbanger
 
Aussie_Metalchild's Avatar
 
Join Date: Sep 2002
Location: Sydney, NSW, Aussiestraliaaa
Posts: 4,479
A tab for Be My Guest? hahaha

PS: Welcome to the forums
__________________
Bass player for Australian metal band LORD

http://www.lord.net.au
http://www.facebook.com/lordofficial
http://www.youtube.com/user/LORDofficial
Aussie_Metalchild is offline  
Digg this Post!Add Post to del.icio.usBookmark Post in TechnoratiFurl this Post!
Reply With Quote
Old September 15th, 2009, 10:12 PM   #52 (permalink)
Lord_Aj
Son of Asa Lande
 
Lord_Aj's Avatar
 
Join Date: Jun 2008
Posts: 250
Redemption 1st riff.

E---------------------------------------------------
B---------------------------------------------------
G---------------------------------------------------
D9h10p9-------7h9p7-------5h7p5-------7---9---10---9-----
A-------0-0-0--------0-0-0-------0-0-0---7---7----7--7----
E---------------------------------------------------

I just tabbed it from memory. I don't have my guitar here so yeah.....

I'll film Huma and post it, seeing as Winterstorm cover it.
Lord_Aj is offline  
Digg this Post!Add Post to del.icio.usBookmark Post in TechnoratiFurl this Post!
Reply With Quote
Old September 15th, 2009, 10:33 PM   #53 (permalink)
Lord Tim
Pitch the banner black
 
Lord Tim's Avatar
 
Join Date: Apr 2001
Location: Wollongong, Australia
Posts: 17,377
There's actually a lot more alternate picked notes in there, but that's pretty much the gist of it.
__________________


LORD: Website .
UM forum . Facebook . YouTube

LATEST ALBUM "DIGITAL LIES" OUT NOW!

I don't ever want to be
Someone else untrue to me
Just a parody
And be a 2D person in a 3D world
Lord Tim is offline  
Digg this Post!Add Post to del.icio.usBookmark Post in TechnoratiFurl this Post!
Reply With Quote
Old September 15th, 2009, 10:51 PM   #54 (permalink)
Lord_Aj
Son of Asa Lande
 
Lord_Aj's Avatar
 
Join Date: Jun 2008
Posts: 250
Quote:
Originally Posted by Lord Tim View Post
There's actually a lot more alternate picked notes in there, but that's pretty much the gist of it.
We can't ever bloody satisfy you can we Tim?
Lord_Aj is offline  
Digg this Post!Add Post to del.icio.usBookmark Post in TechnoratiFurl this Post!
Reply With Quote
Old September 15th, 2009, 11:19 PM   #55 (permalink)
Lord Tim
Pitch the banner black
 
Lord Tim's Avatar
 
Join Date: Apr 2001
Location: Wollongong, Australia
Posts: 17,377
Nope!

Actually, that's a big peeve of mine when I see tab books - they do something that sounds close to what the part actually is but it's not correct, but people who use those books play it like it's written thinking they know the right way to play it and then are confused when it doesn't really sound the same as what the artist is doing. I remember one Maiden tab book where they put both harmony parts in for the same guitar and you had to do some kind of fucked up finger picking to play them all at once. Just retarded!

Don't worry, if anyone wants to tab anything out soon, we're gonna make it easy for you! Just gotta clear a few things off of my plate first and then I'll get onto it.
__________________


LORD: Website .
UM forum . Facebook . YouTube

LATEST ALBUM "DIGITAL LIES" OUT NOW!

I don't ever want to be
Someone else untrue to me
Just a parody
And be a 2D person in a 3D world
Lord Tim is offline  
Digg this Post!Add Post to del.icio.usBookmark Post in TechnoratiFurl this Post!
Reply With Quote
Old September 16th, 2009, 02:00 AM   #56 (permalink)
Nebulous
Daniel
 
Nebulous's Avatar
 
Join Date: Dec 2003
Location: Brookfield, VIC, Australia
Posts: 7,245
Well you better be prepeared to do 90% of the back catalogue then
At which point you might as well just do the full 100%
__________________
Join [link=https://www.facebook.com/#!/groups/1378776992369660/]Caparison Players Australia[/link] on Facebook....if you live in Australia and play a Caparison
Nebulous is offline  
Digg this Post!Add Post to del.icio.usBookmark Post in TechnoratiFurl this Post!
Reply With Quote
Old September 16th, 2009, 11:41 PM   #57 (permalink)
Lord_Aj
Son of Asa Lande
 
Lord_Aj's Avatar
 
Join Date: Jun 2008
Posts: 250
Well, I'm not a book, so there! :P
Lord_Aj is offline  
Digg this Post!Add Post to del.icio.usBookmark Post in TechnoratiFurl this Post!
Reply With Quote
Old September 17th, 2009, 02:44 PM   #58 (permalink)
AussieTerry84
\m/ Scanner Scrag \m/
 
AussieTerry84's Avatar
 
Join Date: Jun 2008
Posts: 361
Timmy ever thought about doing what My Dying Bride did for their new one and include a bit of ASCII tab for some of the songs in the booklet? I thought it was very uber cool of My Dying Bride to do that for the younger fans or fans who were new to guitar.
AussieTerry84 is offline  
Digg this Post!Add Post to del.icio.usBookmark Post in TechnoratiFurl this Post!
Reply With Quote
Old September 17th, 2009, 06:09 PM   #59 (permalink)
Lord Tim
Pitch the banner black
 
Lord Tim's Avatar
 
Join Date: Apr 2001
Location: Wollongong, Australia
Posts: 17,377
Well, yeah it'd be great... Except that as we said, we don't have the skills or the time to do this stuff, at least up to the standard that we'd want to put our name on as an official product.

The other thing is that big booklets cost a fuckload of money. We don't have major label support (in fact WE are our own label so we pay for everything ourselves) so we need to be smart about where the money goes. Do we have a 20 page booklet that has a couple songs in it which costs us another couple of grand to press up or do we do a 12 page and say go to our website and get as many songs and as much additional content as we like?

I think when we get the time to do what we want to do properly, people will be happy.
__________________


LORD: Website .
UM forum . Facebook . YouTube

LATEST ALBUM "DIGITAL LIES" OUT NOW!

I don't ever want to be
Someone else untrue to me
Just a parody
And be a 2D person in a 3D world

Last edited by Lord Tim : September 17th, 2009 at 06:12 PM.
Lord Tim is offline  
Digg this Post!Add Post to del.icio.usBookmark Post in TechnoratiFurl this Post!
Reply With Quote
Old September 18th, 2009, 02:22 AM   #60 (permalink)
AussieTerry84
\m/ Scanner Scrag \m/
 
AussieTerry84's Avatar
 
Join Date: Jun 2008
Posts: 361
pfft cheap skates!!!



:P

then i see where this thread is going, with teh My Dying Bride thing they give you some half arse ASCII tabs for some of the music, but here you get help from other forum members and BAND members showing you how to play it right, so i guess in a way this is better than including it in the booklet when you think about it!


p.s. ever thought about including one of these with every album? :P LOL
http://en.wikipedia.org/wiki/File:Sc...unch-event.jpg
AussieTerry84 is offline  
Digg this Post!Add Post to del.icio.usBookmark Post in TechnoratiFurl this Post!
Reply With Quote
Old September 21st, 2009, 02:43 PM   #61 (permalink)
Arycama
Elitist Power Metal Poser
 
Arycama's Avatar
 
Join Date: Apr 2009
Location: Adelaide, South Australia
Posts: 115
I think I have the sweeps after the 2nd chorus of Taranno Del Mar figured out.

These notes are all semiquaver(16th note) triplets. Its rather fast and hard to play, but if your sweep picking is good, shouldn't be too much of a problem.


--------10-14p-10----------10-14p-10----------10-14p-10----------10-14p-10----|
-----12-----------12----12-----------12----12-----------12----12-----------12-|
--11-----------------11-----------------11-----------------11-----------------|
------------------------------------------------------------------------------|
------------------------------------------------------------------------------|
------------------------------------------------------------------------------|

--------14-17p-14----------14-17p-14----------14-17p-14----------14-17p-14----|
-----15-----------15----15-----------15----15-----------15----15-----------15-|
--14-----------------14-----------------14-----------------14-----------------|
------------------------------------------------------------------------------|
------------------------------------------------------------------------------|
------------------------------------------------------------------------------|

--------16-19p-16----------16-19p-16----------16-19p-16----------16-19p-16----|
-----17-----------17----17-----------17----17-----------17----17-----------17-|
--16-----------------16-----------------16-----------------16-----------------|
------------------------------------------------------------------------------|
------------------------------------------------------------------------------|
------------------------------------------------------------------------------|

--------17-21p-17----------17-21p-17----------17-21p-17----------17-21--||
-----19-----------19----19-----------19----19-----------19----19--------||
--18-----------------18-----------------18-----------------18-----------||
------------------------------------------------------------------------||
------------------------------------------------------------------------||
------------------------------------------------------------------------||

Guitar two


--------------10h-14-14p-10-------------------------10h-14-14p-10-------------|
-----------12---------------12-------------------12---------------12----------|
--------11---------------------11-------------11---------------------11-------|
-----12---------------------------12-------12---------------------------12----|
--14---------------------------------14-14---------------------------------14-|
------------------------------------------------------------------------------|

--------------14h-17-17p-14-------------------------14h-17-17p-14-------------|
-----------15---------------15-------------------15---------------15----------|
--------14---------------------14-------------14---------------------14-------|
-----16---------------------------16-------16---------------------------16----|
--17---------------------------------17-17---------------------------------17-|
------------------------------------------------------------------------------|

--------------16h-19-19p-16-------------------------16h-19-19p-16-------------|
-----------17---------------17-------------------17---------------17----------|
--------16---------------------16-------------16---------------------16-------|
-----18---------------------------18-------18---------------------------18----|
--19---------------------------------19-19---------------------------------19-|
------------------------------------------------------------------------------|

--------------17h-21-21p-17-------------------------17h-21-21p-17-------------||
-----------19---------------19-------------------19---------------19----------||
--------18---------------------18-------------18---------------------18-------||
-----19---------------------------19-------19---------------------------19----||
--21---------------------------------21-21---------------------------------21-||
------------------------------------------------------------------------------||




Last edited by Arycama : September 27th, 2009 at 05:16 PM.
Arycama is offline  
Digg this Post!Add Post to del.icio.usBookmark Post in TechnoratiFurl this Post!
Reply With Quote
Old October 12th, 2009, 12:05 AM   #62 (permalink)
LORD866
Metal Machine
 
LORD866's Avatar
 
Join Date: Sep 2009
Location: In a house
Posts: 87
I think someone should start posting bass tabs as well, Guitar is all well and good, but bass is important also. (I would tab them, but i am too shit at it too do something like that)
__________________
THEY CAN'T STOP US LET 'EM TRY
FOR HEAVY METAL WE WILL DIE!
LORD866 is offline  
Digg this Post!Add Post to del.icio.usBookmark Post in TechnoratiFurl this Post!
Reply With Quote
Old March 6th, 2010, 09:40 PM   #63 (permalink)
LORD866
Metal Machine
 
LORD866's Avatar
 
Join Date: Sep 2009
Location: In a house
Posts: 87
Can someone please tab some bass stuff for LORD and Dungeon. I have tried, but i just can't seem to do it. I would really like to play some of my favourite bands music.
__________________
THEY CAN'T STOP US LET 'EM TRY
FOR HEAVY METAL WE WILL DIE!
LORD866 is offline  
Digg this Post!Add Post to del.icio.usBookmark Post in TechnoratiFurl this Post!
Reply With Quote
Old April 6th, 2010, 06:57 AM   #64 (permalink)
Lord Tim
Pitch the banner black
 
Lord Tim's Avatar
 
Join Date: Apr 2001
Location: Wollongong, Australia
Posts: 17,377
So Mark has taken the time to tab out the guitar part for the harmony at the beginning and end of Eternal Storm!

See if you guys can play this:

Code:
                                    -  Eternal Storm -
                     by LORD - Eb - High Harmony Intro/outro 
                             Tabbed by Mark Furtner

E----------------------------------------------------------------------------------------------------
B--------------------------------15------------------------------------------15----------------------
G--16--14------14--16--14--16--17--17--16--14--16--14------14--16--14--16--17--17--16--14------------
D----17--16--17------17----------------------17--17--16--17------17----------------------17----------
A----------------------------------------------------------------------------------------------------
E----------------------------------------------------------------------------------------------------

E------------------------------------------------------------------12--------------------------------
B--------------------------------12----------------------12--13--15--15--13--12--13--12------12------
G--12--11------11--12--11--12--14--14--12--11--11--12--14----------------------14------14--12--------
D----14--12--14------14----------------------14------------------------------------------------------
A----------------------------------------------------------------------------------------------------
E----------------------------------------------------------------------------------------------------

E--------------------------------15------------------------------------------15----------------------
B--17--15------15--17--15--17--18--18--17--15--17--15------15--17--15--17--18--18--17--15------------
G----17--16--17------17----------------------17--17--16--17------17----------------------17----------
D----------------------------------------------------------------------------------------------------
A----------------------------------------------------------------------------------------------------
E----------------------------------------------------------------------------------------------------

E--------------------------------15----------------------17--18--20--22--20--18--17--18--17------17--
B--18--17------17--18--17--18--20--20--18--17--17--18--20--------------------------20------20--18----
G----19--17--19------19----------------------19------------------------------------------------------
D----------------------------------------------------------------------------------------------------
A----------------------------------------------------------------------------------------------------
E----------------------------------------------------------------------------------------------------

E----------------------------------------------------------------------------------------------------
B--------------------------------18------------------------------------------18----------------------
G--19--17------17--19--17--19--20--20--19--17--19--17------17--19--17--19--20--20--19--17------------
D----20--19--20------20----------------------20--20--19--20------20----------------------20----------
A----------------------------------------------------------------------------------------------------
E----------------------------------------------------------------------------------------------------

E------------------------------------------------------------------15--------------------------------
B--------------------------------15----------------------15--16--18--18--16--15--16--15------15------
G--15--14------14--15--14--15--17--17--15--14--14--15--17----------------------17------17--15--------
D----17--15--17------17----------------------17------------------------------------------------------
A----------------------------------------------------------------------------------------------------
E----------------------------------------------------------------------------------------------------

E----------------------------------------------------------------------------------------------------
B----------------------------------------------------------------------------------------------------
G--14--8--12--10--------14--6--10--8--------14--8--12--10--------14--6--10--8------------------------
D----------------------------------------------------------------------------------------------------
A----------------------------------------------------------------------------------------------------
E----------------------------------------------------------------------------------------------------
Code:
                                 - Eternal Storm -
                    by LORD - Eb - Low Harmony Intro/outro 
                            Tabbed by Mark Furtner

E------------------------------------------------------------------------------------------------
B--------------------------------12------------------------------------------12------------------
G--12--11------11--12--11--12--14--14--12--11--12--11------11--12--11--12--14--14--12--11--------
D----14--12--14------14----------------------14--14--12--14------14----------------------14------
A------------------------------------------------------------------------------------------------
E------------------------------------------------------------------------------------------------

E------------------------------------------------------8-----------------------------------------
B-------------------------8-------------------8--10--12-12--10--8--10--8------8------------------
G--9--7-----7--9--7--9--11--11--9--7--7--9--11-------------------11------11--9-------------------
D---10-9--10----10------------------10-----------------------------------------------------------
A------------------------------------------------------------------------------------------------
E------------------------------------------------------------------------------------------------

E------------------------------------------------------------------------------------------------
B--------------------------------17------------------------------------------17------------------
G--17--16------16--17--16--17--19--19--17--16--17--16------16--17--16--17--19--19--17--16--------
D----19--17--19------19----------------------19--19--17--19------19----------------------19------
A------------------------------------------------------------------------------------------------
E------------------------------------------------------------------------------------------------

E------------------------------------------------------------------18----------------------------
B--------------------------------20----------------------18--20--22--22--20--18--20--18------18--
G--19--17------17--19--17--19--21--21--19--17--17--19--21----------------------21------21--19----
D----20--19--20------20----------------------20--------------------------------------------------
A------------------------------------------------------------------------------------------------
E------------------------------------------------------------------------------------------------

E------------------------------------------------------------------------------------------------
B--------------------------------15------------------------------------------15------------------
G--15--14------14--15--14--15--17--17--15--14--15--14------14--15--14--15--17--17--15--14--------
D----17--15--17------17----------------------17--17--15--17------17----------------------7-------
A------------------------------------------------------------------------------------------------
E------------------------------------------------------------------------------------------------

E------------------------------------------------------------------11----------------------------
B--------------------------------11----------------------11--13--15--15--13--11--13--11------11--
G--12--10------10--12--10--12--14--14--12--10--10--12--14----------------------14------14--12----
D----13--12--13------13----------------------13--------------------------------------------------
A------------------------------------------------------------------------------------------------
E------------------------------------------------------------------------------------------------

E------------------------------------------------------------------------------------------------
B------------------------------------------------------------------------------------------------
G--10--5--8--7--------10--3--6--5--------10--5--8--7--------10--3--6--5--------------------------
D------------------------------------------------------------------------------------------------
A------------------------------------------------------------------------------------------------
E------------------------------------------------------------------------------------------------
I know I can't!

Good luck!
__________________


LORD: Website .
UM forum . Facebook . YouTube

LATEST ALBUM "DIGITAL LIES" OUT NOW!

I don't ever want to be
Someone else untrue to me
Just a parody
And be a 2D person in a 3D world
Lord Tim is offline  
Digg this Post!Add Post to del.icio.usBookmark Post in TechnoratiFurl this Post!
Reply With Quote
Old April 6th, 2010, 08:06 AM   #65 (permalink)
Arycama
Elitist Power Metal Poser
 
Arycama's Avatar
 
Join Date: Apr 2009
Location: Adelaide, South Australia
Posts: 115
Hell yeah! I really wanted to try and figure that out, but never found the time. I'll start learning it at once.
__________________
Matronarch, Epic Power Metal from South Australia
http://www.myspace.com/matronarch
Arycama is offline  
Digg this Post!Add Post to del.icio.usBookmark Post in TechnoratiFurl this Post!
Reply With Quote
Old April 6th, 2010, 09:15 PM   #66 (permalink)
bsercombe
Swollen Member
 
bsercombe's Avatar
 
Join Date: Mar 2007
Location: Perth, WA
Posts: 2,624
Holy crap!

Thanks Mark!!!!!!!!
__________________
I rag myself to my feet
an take what's rightly mine...
bsercombe is offline  
Digg this Post!Add Post to del.icio.usBookmark Post in TechnoratiFurl this Post!
Reply With Quote
Old April 6th, 2010, 10:19 PM   #67 (permalink)
sadisticsatyr
Young Apprentice
 
sadisticsatyr's Avatar
 
Join Date: Oct 2006
Location: Campbelltown Brah
Posts: 1,617
Does the ending-ish part come next??? The part that was in the recording video???
__________________
The sleeper has awakened!
sadisticsatyr is offline  
Digg this Post!Add Post to del.icio.usBookmark Post in TechnoratiFurl this Post!
Reply With Quote
Old April 6th, 2010, 10:22 PM   #68 (permalink)
Lord Tim
Pitch the banner black
 
Lord Tim's Avatar
 
Join Date: Apr 2001
Location: Wollongong, Australia
Posts: 17,377
The arpeggio tap-slide thing? Again, good fuckin' luck with that if he puts it up!
__________________


LORD: Website .
UM forum . Facebook . YouTube

LATEST ALBUM "DIGITAL LIES" OUT NOW!

I don't ever want to be
Someone else untrue to me
Just a parody
And be a 2D person in a 3D world
Lord Tim is offline  
Digg this Post!Add Post to del.icio.usBookmark Post in TechnoratiFurl this Post!
Reply With Quote
Old April 6th, 2010, 11:45 PM   #69 (permalink)
skrabsta
Senior Member
 
skrabsta's Avatar
 
Join Date: Nov 2006
Posts: 185
Quote:
Originally Posted by Lord Tim View Post
So Mark has taken the time to tab out the guitar part for the harmony at the beginning and end of Eternal Storm!

See if you guys can play this:


I know I can't!

Good luck!
thats why Mr Furtner always wins the shred offs at your gigs !
__________________
http://i18.photobucket.com/albums/b126/skrabsta/imocsig.jpg
skrabsta is offline  
Digg this Post!Add Post to del.icio.usBookmark Post in TechnoratiFurl this Post!
Reply With Quote
Old April 7th, 2010, 01:17 AM   #70 (permalink)
Lord Tim
Pitch the banner black
 
Lord Tim's Avatar
 
Join Date: Apr 2001
Location: Wollongong, Australia
Posts: 17,377
/wrists.

__________________


LORD: Website .
UM forum . Facebook . YouTube

LATEST ALBUM "DIGITAL LIES" OUT NOW!

I don't ever want to be
Someone else untrue to me
Just a parody
And be a 2D person in a 3D world
Lord Tim is offline  
Digg this Post!Add Post to del.icio.usBookmark Post in TechnoratiFurl this Post!
Reply With Quote
Old April 7th, 2010, 01:48 AM   #71 (permalink)
Arycama
Elitist Power Metal Poser
 
Arycama's Avatar
 
Join Date: Apr 2009
Location: Adelaide, South Australia
Posts: 115
I tabbed the whole intro in guitar pro with all the instruments if anyone wants it, sounds pretty cool, a bit of the rhythm/bass guitar might be a bit off, I am using a laptop with terrible speakers, but the lead guitar should be fine, and thats all anyone wants to learn, right?

http://www.mediafire.com/file/h2zmfz...rnal Storm.gp4

Now I just have to hope Mark tabs out the tapping solo in Through the Fire, and i will be happy.
__________________
Matronarch, Epic Power Metal from South Australia
http://www.myspace.com/matronarch

Last edited by Arycama : April 7th, 2010 at 02:25 AM.
Arycama is offline  
Digg this Post!Add Post to del.icio.usBookmark Post in TechnoratiFurl this Post!
Reply With Quote
Old April 7th, 2010, 02:30 AM   #72 (permalink)
skrabsta
Senior Member
 
skrabsta's Avatar
 
Join Date: Nov 2006
Posts: 185
Quote:
Originally Posted by Lord Tim View Post
/wrists.

excuses, excuses !
__________________
http://i18.photobucket.com/albums/b126/skrabsta/imocsig.jpg
skrabsta is offline  
Digg this Post!Add Post to del.icio.usBookmark Post in TechnoratiFurl this Post!
Reply With Quote
Old April 7th, 2010, 02:40 AM   #73 (permalink)
Lord Tim
Pitch the banner black
 
Lord Tim's Avatar
 
Join Date: Apr 2001
Location: Wollongong, Australia
Posts: 17,377
No I mean I cut my wrists 'cos of that! But yeah, that's right - wrist problems! Ha, and I can still keep up with that rank amateur! HAHA!
__________________


LORD: Website .
UM forum . Facebook . YouTube

LATEST ALBUM "DIGITAL LIES" OUT NOW!

I don't ever want to be
Someone else untrue to me
Just a parody
And be a 2D person in a 3D world
Lord Tim is offline  
Digg this Post!Add Post to del.icio.usBookmark Post in TechnoratiFurl this Post!
Reply With Quote
Old April 7th, 2010, 03:15 AM   #74 (permalink)
sadisticsatyr
Young Apprentice
 
sadisticsatyr's Avatar
 
Join Date: Oct 2006
Location: Campbelltown Brah
Posts: 1,617
Quote:
Originally Posted by Arycama View Post
I tabbed the whole intro in guitar pro with all the instruments


Quote:
Originally Posted by Lord Tim View Post
The arpeggio tap-slide thing? Again, good fuckin' luck with that if he puts it up!
Haha yup, thats exactly it. First time i heard it was Then in the context of the song it just fits to damn well.
__________________
The sleeper has awakened!
sadisticsatyr is offline  
Digg this Post!Add Post to del.icio.usBookmark Post in TechnoratiFurl this Post!
Reply With Quote
Old April 7th, 2010, 04:55 AM   #75 (permalink)
Sargeant Squidlips
Handsome Devil
 
Sargeant Squidlips's Avatar
 
Join Date: May 2009
Location: Sydney
Posts: 97
Quote:
Originally Posted by sadisticsatyr View Post



Haha yup, thats exactly it. First time i heard it was Then in the context of the song it just fits to damn well.
If ya's really want it ill tab it out, btw tim's wrists are fucked from wanking damo off on tour so much :P
Sargeant Squidlips is offline  
Digg this Post!Add Post to del.icio.usBookmark Post in TechnoratiFurl this Post!
Reply With Quote
Reply


Thread Tools

Posting Rules
You may not post new threads
You may not post replies
You may not post attachments
You may not edit your posts

vB code is On
Smilies are On
[IMG] code is On
HTML code is Off
Trackbacks are On
Pingbacks are On
Refbacks are On





All times are GMT -5. The time now is 03:45 AM.


Powered by vBulletin® Version 3.6.8
Copyright ©2000 - 2014, Jelsoft Enterprises Ltd.
Search Engine Optimization by vBSEO 3.0.0
© Copyright 2000-2010 UltimateMetal.com | MetalAges Media