This site is supported by the advertisements on it, please disable your AdBlocker so we can continue to provide you with the quality content you expect.

Welcome to Our Community

Wanting to join the rest of our members? Feel free to sign up today.

I Tabbed Kill For God

Discussion in 'Vehemence' started by Luna_Embolus, Oct 14, 2003.

  1. Luna_Embolus

    Luna_Embolus New Metal Member

    Joined:
    Oct 14, 2003
    Messages:
    18
    Likes Received:
    0
    Trophy Points:
    1
    Vehemence - Kill For God
    Tuning - B E A D F# B

    Riff 1

    |---------------------------------|
    |---------------------------------|
    |-----6-8-6-4-----6-8-6-4---------|
    |---------------------------------|
    |---6-----------6-----------6-----|
    |-4-----------4-----------4---4-2-|

    |-----------------------------------------|
    |-----------------------------------------|
    |-----6-8-6-4-----6-8-6-4-----6---9---8---|
    |-----------------------------------------|
    |---7-----------7-----------7---7---7---7-|
    |-0-----------0-----------0---------------|

    Repeat

    Riff 2

    |-----------------------------------|
    |-----------------------------------|
    |-9-9-9-8-8-8-8-8-8-8-8-8-----------|
    |-----------------------------------|
    |-7-7-7-6-6-6-6-6-6-6-6-6-4-6-464-2-|
    |-4-4-4-4-4-4-4-4-4-4-4-4-----------|

    |---------------------------------|
    |---------------------------------|
    |-6-6-6-6-6-8-4-4-4-4-4-4-4-4-4-4-|
    |---------------------------------|
    |-4-4-4-4-4-6-2-2-2-2-2-2-2-2-2-2-|
    |-0-0-0-0-0-0-0-0-0-0-0-0-0-0-0-0-|

    Repeat

    Alternate (Final) Ending

    |---------------------------------|
    |---------------------------------|
    |-6-6-6-4-4-6-8-8-8-8-8-8-8-8-8-8-|
    |---------------------------------|
    |-4-4-4-2-2-4-6-6-6-6-6-6-6-6-6-6-|
    |-0-0-0-0-0-0-0-0-0-0-0-0-0-0-0-0-|

    Repeat Riff 1

    Repeat Riff 2

    Riff 3
    Guitar 1

    |---------------------------------|
    |---------------------------------|
    |---------------------------------|
    |-2-2-2-2-2-2-2-2-2-2-2-2-4-4-4-4-|
    |-2-2-2-2-2-2-2-2-2-2-2-2-4-4-4-4-|
    |-0-0-0-0-0-0-0-0-0-0-0-0-2-2-2-2-|

    |---------------------------------|
    |---------------------------------|
    |---------------------------------|
    |-6-6-6-6-6-6-6-6-6-6-6-6-4-4-4-4-|
    |-6-6-6-6-6-6-6-6-6-6-6-6-4-4-4-4-|
    |-4-4-4-4-4-4-4-4-4-4-4-4-2-2-2-2-|

    Guitar 2

    |-------------------------------------|
    |-9-9-9-9-9-9-9-9-9-9-9-9-14-14-14-14-|
    |-------------------------------------|
    |-6-6-6-6-6-6-6-6-6-6-6-6-11-11-11-11-|
    |-------------------------------------|
    |-------------------------------------|

    1st time
    |-------------------------------------------------|
    |-16-16-16-16-16-16-16-16-16-16-16-16-16-16-16-16-|
    |-------------------------------------------------|
    |-13-13-13-13-13-13-13-13-13-13-13-13-13-13-13-13-|
    |-------------------------------------------------|
    |-------------------------------------------------|

    2nd time
    |-------------------------------------------------|
    |-16-16-16-16-16-16-16-11-11-11-11-11-11-11-11-11-|
    |-------------------------------------------------|
    |-13-13-13-13-13-13-13-8--8--8--8--8--8--8--8--8--|
    |-------------------------------------------------|
    |-------------------------------------------------|

    Repeat

    |-------------------------------------|
    |-------------------------------------|
    |-------------------------------------|
    |-------------------------------------|
    |-2-2-2----2-2-2----2-2-2----2-2-2----|
    |-0-0-0----0-0-0----0-0-0----0-0-0----|

    |---------------------------------------------------|
    |---------------------------------------------------|
    |---------------------------------------------------|
    |---------------------------------------------------|
    |-2-2-2--4-4-4--6-6-6----6-6-6----6-6-6----6-6-6----|
    |-0-0-0--2-2-2--4-4-4----4-4-4----4-4-4----4-4-4----|

    |---------------|
    |---------------|
    |---------------|
    |---------------|
    |-4-4-4--6-6-6--|
    |-2-2-2--4-4-4--|

    Repeat

    Repeat Riff 2 Until End


    some bits are missing and it isn't anal with all the little things that change in the riffs, i'll finish it up soon and make it more accurate but it sounds alright to me so far.

    Enjoy.

    PS - To the guys in Vehemence,

    is this accurate at all???
     
  2. VEHEMENCE

    VEHEMENCE Helping The World To See

    Joined:
    Jan 3, 2002
    Messages:
    4,141
    Likes Received:
    32
    Trophy Points:
    48
    Location:
    Phoenix, Arizona U.S.A.
    Thanks so much for taking the time to learn Vehemence material. Since it seems you choose my harmony part to Tab, I got some corrections as far as proper stuff is concerned, good job though, close. Overdubs will be another section...



    Vehemence - Kill For God - Demo - Final
    Tuning - B E A D F# B


    Riff 1 is fingered like this. 0:00 to 0:31

    |---------------------------------|
    |-------4-----------4-------------|
    |-----6---6-4-----6---6-3---------|
    |---------------------------------|
    |---6-----------6-----------6-----|
    |-4-----------4-----------4---4-2-|


    |-----------------------------------------|
    |-------4-----------4-----------------4-2-|
    |-----6---6-3-----6---6-4-----6---5-------|
    |-----------------------------------------|
    |---7-----------7-----------7---7---6-----|
    |-0-----------0-----------0---------------|


    Repeat

    Riff 2 0:32-0:59

    |-----------------------------------|
    |-----------------------------------|
    |-----------------------------------|
    |-----------------------------------|
    |-7-7-7-6-6-6-6-6-6-6-6-6-4-6-464-2-|
    |-4-4-4-4-4-4-4-4-4-4-4-4-----------|

    |---------------------------------|
    |---------------------------------|
    |---------------------------------|
    |---------------------------------|
    |-4-4-4-4-4-6-2-2-2-2-2-2-2-2-2-2-|
    |-0-0-0-0-0-0-0-0-0-0-0-0-0-0-0-0-|

    The second time this above riff is played.

    |------------------------------------|
    |------------------------------------|
    |------------------------------------|
    |------------------------------4-4-4-|
    |-4-4-4-4-4-6-2-2-2-2-2-2------2-2-2-|
    |-0-0-0-0-0-0-0-0-0-0-0-0--0-0-------|


    Repeat Riff 1 1:00-1:15

    Repeat Riff 2
    1:16-1:42

    -------------------------------------------

    Next riff is at 1:45 now



    Riff 3
    Guitar 1 1:43-2:10

    |---------------------------------|
    |---------------------------------|
    |---------------------------------|
    |---------------------------------|
    |-2-2-2-2-2-2-2-2-2-2-2-2-2-4-4-4-|
    |-0-0-0-0-0-0-0-0-0-0-0-0-0-2-2-2-|

    |---------------------------------|
    |---------------------------------|
    |---------------------------------|
    |---------------------------------|
    |-6-6-6-6-6-6-6-6--6-6-6-6-6-4/---|


    |-4-4-4-4-4-4-4-4--7-6-7-6-7-2/---|

    ^ this
    is a press down on the floyd rose bending
    up the notes 2 notes that way, yes it
    does sound different.


    Riff 4 2:11-2:39

    Guitar 1



    |-------------------------------------------------------------|
    |-------------------------------------------------------------|
    |-------------------------------------------------------------|
    |--------------------------------------------------66---66----|
    |-22---22---22---22---22---44---66---66---66---66--44---44----|
    |-00---00---00---00---00---22---44---44---44---44--44---44----|


    ^ last time around this is played 2 more times, a strum



    Repeat Riff 4 four times



    The riff then breaks into a harmony between the 2 times
    (live wise) at 2:25-2:39 Double Picked


    Guitar 1 Harmony (which is the higher harmony)



    |------------------------------------------------------|
    |-16-14-----16-14-----16-14-----16-14-----12----12--14-|
    |-------13--------13--------13--------13-----13--------|
    |------------------------------------------------------|
    |------------------------------------------------------|


    |--------------------------------------------------------------|




    |------------------------------------------------------------|
    |-16-14-12---16-14-12----16-14-12----16-14-12---12----14--12-|
    |--------------------------------------------------12--------|
    |------------------------------------------------------------|
    |------------------------------------------------------------|

    |---------------------------------------------------------------------|





    Then repeat what you hear...from Riff 2, till it ends.
     
  3. Luna_Embolus

    Luna_Embolus New Metal Member

    Joined:
    Oct 14, 2003
    Messages:
    18
    Likes Received:
    0
    Trophy Points:
    1
    it was my pleasure man, thanks a bunch for the corrections :tickled: :worship:

    i think i might have a shot at She Never Noticed Me now. :Smug:
     
  4. VEHEMENCE

    VEHEMENCE Helping The World To See

    Joined:
    Jan 3, 2002
    Messages:
    4,141
    Likes Received:
    32
    Trophy Points:
    48
    Location:
    Phoenix, Arizona U.S.A.
    Feel free to man, It reallyhelps out the cause for tabs, and if there are corrections I will post them..helps the tabs become more acurate, its nice to see how others hear it too.
     
  5. Nihilistic

    Nihilistic Member

    Joined:
    Jul 29, 2003
    Messages:
    451
    Likes Received:
    169
    Trophy Points:
    43
    Location:
    Australia
    Oh fuck yes. Thanks for this guys :D
     
  6. VEHEMENCE

    VEHEMENCE Helping The World To See

    Joined:
    Jan 3, 2002
    Messages:
    4,141
    Likes Received:
    32
    Trophy Points:
    48
    Location:
    Phoenix, Arizona U.S.A.
    No problem Nihilistic
    Keep em comming!
     
  7. PANTERAaddict101

    PANTERAaddict101 Vehemence Worshiper

    Joined:
    Sep 16, 2002
    Messages:
    590
    Likes Received:
    9
    Trophy Points:
    18
    Location:
    Phoenix
    Hey John, did you ever get around to writing tabs for God Was Created songs?

    oh wait never mind, i just found another thread...
     
  8. VEHEMENCE

    VEHEMENCE Helping The World To See

    Joined:
    Jan 3, 2002
    Messages:
    4,141
    Likes Received:
    32
    Trophy Points:
    48
    Location:
    Phoenix, Arizona U.S.A.
    Yup, hoepfully we can get more tabs comming in. Sergio from the band Legions, just played me over his AIM talk connection I Didint Kill her, or what he though it was. Sounded pretty cool to hear others playing our stuff.
     
  9. PANTERAaddict101

    PANTERAaddict101 Vehemence Worshiper

    Joined:
    Sep 16, 2002
    Messages:
    590
    Likes Received:
    9
    Trophy Points:
    18
    Location:
    Phoenix
    I try... but I'm not very good at figuring out other's music.
     
  10. Luna_Embolus

    Luna_Embolus New Metal Member

    Joined:
    Oct 14, 2003
    Messages:
    18
    Likes Received:
    0
    Trophy Points:
    1
    i've started tabbing God Was Created (the song) and have most of the riffs sorted out but not 100% sure on them yet, but anyways, i'll tab it up and post it here soon, hopfully.
     
  11. Luna_Embolus

    Luna_Embolus New Metal Member

    Joined:
    Oct 14, 2003
    Messages:
    18
    Likes Received:
    0
    Trophy Points:
    1
    Heres the God Was Created tab, its pretty confusing the way i had to tab it out, sorry bout that and i'm not really confident with some of the riffs although when i play along they don't sound "out" but when played by themselves they sound a bit funky :erk: , but thats only in a few little endings and bits of riffs, it says on the tab pretty much where i'm not sure, anyways,

    Enjoy. :tickled:

    Vehemence - God Was Created
    Tuning - B E A D F# B

    Riff 1

    |---------------------------------|
    |---------------------------------|
    |---------------------------------|
    |-------------------------7-------|
    |-------8-7-8-7---7---7-8---8-7-8-|
    |-55555---------5---5-------------|

    |-----------------------------------|
    |-----------------------------------|
    |-----------------------------------|
    |-----------------------------------|
    |-55555-5-7-8-7777-------5-7-8-7777-|
    |------------------33333------------|

    |---------------------------------|
    |---------------------------------|
    |---------------------------------|
    |-------------------------7-------|
    |-------8-7-8-7---7---7-8---8-7-8-|
    |-33333---------3---3-------------|

    |--------------------------------|
    |--------------------------------|
    |--------------------------------|
    |-3----5----8-----7----5----7----|
    |-5----7----10----8----7----8----|
    |--------------------------------|
    These chords are speed picked

    Repeat Riff 1
    Repeat Riff 1 (Speed picked)

    Chorus (Riff 2)

    - Guitar 1 -

    |-----------------------------------------|
    |-----------------------------------------|
    |-----5-4-----2---5-----------5-4-----2---|
    |-----------5-----------------------5-----|
    |-0-------------------2-3-----------------|
    |-------------------------1---------------|

    |-----------------------------------|
    |-6---5-------10-9---5-6--565---5---|
    |-----------------------------7-----|
    |-----------------------------------|
    |-----------------------------------|
    |---------0-------------------------|
    All of above is speed picked

    |-----------------------------------|
    |-----------------------------------|
    |-----------------------------------|
    |-5-7-5-10---9--5-7777--------------|
    |----------------------8888-7---5-7-|
    |-----------------------------------|

    - Guitar 2 -

    |-----------------------------------------|
    |-----5-3-----1---5-----------5-3-----1---|
    |-----------4-----------------------4-----|
    |-----------------------------------------|
    |-0-------------------2-3-----------------|
    |-------------------------1---------------|

    |-5---3-------8-7---3-5--353---3---|
    |----------------------------6-----|
    |----------------------------------|
    |----------------------------------|
    |----------------------------------|
    |---------0------------------------|

    |----------------------------------|
    |----------------------------------|
    |-4-5-4-9---7--4-5555--------------|
    |---------------------7777-5-------|
    |------------------------------5-7-|
    |----------------------------------|

    Repeat

    Alternate (Final) Ending

    - Guitar 1 -

    |------------------------------------|
    |------------------------------------|
    |------------------------------------|
    |-5-7-5-10---9--5-7---10---12---14---|
    |------------------------------------|
    |------------------------------------|

    - Guitar 2 -

    |----------------------------------|
    |----------------------------------|
    |-4-5-4-9---7--4-5---9---10---12---|
    |----------------------------------|
    |----------------------------------|
    |----------------------------------|

    Riff 3

    - Guitar 1 -

    |-------------------------------------------------|
    |-------------------------------------------------|
    |-------------------------------------------------|
    |-10-------15-14-12---9-------14---121412-10-12---|
    |-------------------------------------------------|
    |-------------------------------------------------|

    |-----------------------------------------------------------|
    |-----------------------------------------------------------|
    |-----------------------------------------------------------|
    |-10-------15-14-12---9-------9-7-5-10-9-7-12-10-9-10-12-14-|
    |-------------------------10--------------------------------|
    |-----------------------------------------------------------|


    - Guitar 2 -

    |------------------------------------------------|
    |------------------------------------------------|
    |-9-------14-12-10----7-------12---101210-9-10---|
    |------------------------------------------------|
    |------------------------------------------------|
    |------------------------------------------------|

    |--------------------------------------------------------|
    |--------------------------------------------------------|
    |-9-------14-12-10----7-------7-5-4-9-7-5-10-9-7-9-10-12-|
    |------------------------9-------------------------------|
    |--------------------------------------------------------|
    |--------------------------------------------------------|
    .not sure about this bit.

    Repeat

    Repeat Chorus

    Repeat Riff 3

    |--------------|
    |--------------|
    |--------------|
    |-10-----------|
    |--------------|
    |--------------|

    Lead

    |----------------------------------------|
    |----------------------------------------|
    |-9--------5---9----7-------14--12--9--7-|
    |-10-------7---10---9-------15--14--10-9-|
    |----------------------------------------|
    |----------------------------------------|

    |---------------------------------------|
    |---------------------------------------|
    |-9--------5---9----7-------------------|
    |-10-------7---10---9-------7-557-9-7-9-|
    |---------------------------------------|
    |---------------------------------------|

    |----------------------------------------|
    |----------------------------------------|
    |-9--------5---9----7-------14--12--9--7-|
    |-10-------7---10---9-------15--14--10-9-|
    |----------------------------------------|
    |----------------------------------------|

    |------------------------------------------------|
    |------------------------------------------------|
    |-9--------5---9---------------------------------|
    |-10-------7---10---7-557-9-7-9-10-9-10-12-10-12-|
    |------------------------------------------------|
    |------------------------------------------------|
    .not sure about this bit.

    Rhthym

    |-------------------------|
    |-------------------------|
    |-------------------------|
    |-------------------------|
    |-7-------3-------5-------|
    |-5-------1-------3-------|
    Just repeat these chords underneath the lead (not sure about this bit)

    Repeat

    |---------------------------------|
    |---------------------------------|
    |---------------------------------|
    |-----7-6-7-----------------------|
    |-0----------8-7-8---------67-----|
    |-------------------8-7-8---------|
    All speed picked

    |-------------------------------|
    |-------------------------------|
    |-------------------------------|
    |-------------------------------|
    |-9-10-9-7-6-7---9-10-9-7-6-7---|
    |-7-8--7-5-4-5---7-8--7-5-4-5---|

    |-----------------------------|
    |-----------------------------|
    |-----------------------------|
    |-----7-6-7-------------------|
    |-0----------8-7-8---------67-|
    |-------------------8-7-8-----|
    All speed picked

    |--------------------------|
    |--------------------------|
    |--------------------------|
    |-9-----10--9-----7--6--9--|
    |----0---------0-----------|
    |--------------------------|
    All speed picked

    Repeat

    |--------------------------------------------------------------|
    |--------------------------------------------------------------|
    |--------------------------------------------------------------|
    |-----10-9-10------10-9-10-------------9-7-9--7--6--9----------|
    |-0------------0--------------------0------------------000-000-|
    |---------------------------5-7-5-4----------------------------|
    All speed picked

    |----------------------------------------------------------------|
    |----------------------------------------------------------------|
    |----------------------------------------------------------------|
    |-----10-9-10------10-9-10--------------9-----10--9-----7--6--9--|
    |-0------------0--------------------0------0---------------------|
    |---------------------------5-7-5-4------------------------------|

    Alternate (Final Ending)

    |--------------------------|
    |--------------------------|
    |-7-----9---7-----5--4--7--|
    |-9-----10--9-----7--6--9--|
    |----0---------0-----------|
    |--------------------------|

    Repeat Riff 1

    Outro

    - Guitar 1 -

    |-----------------------------------------------------------|
    |-----------------------------------------------------------|
    |-------------------5---5-5-5-9-5-7-575-5---5-5-5-9-5-7-575-|
    |-----------------------------------------------------------|
    |-7---9---10---12-------------------------------------------|
    |-5---7---8----10-------------------------------------------|

    - Guitar 2 -

    |------------------------------------------------------|
    |------------------------------------------------------|
    |-5---7---12-10-9----10--9----7------------------------|
    |-7---9---14-12-10---12--10---9---7---7-7-7-10-7-9-797-|
    |--------0---------------------------------------------|
    |------------------------------------------------------|

    |----------------------|
    |----------------------|
    |----------------------|
    |-7---7-7-7-10-7-9-797-|
    |----------------------|
    |----------------------|

    Repeat/fade out

    End.
     
  12. Nihilistic

    Nihilistic Member

    Joined:
    Jul 29, 2003
    Messages:
    451
    Likes Received:
    169
    Trophy Points:
    43
    Location:
    Australia
    You have a real talent for tabbing out songs. Sounds great!
     
  13. Luna_Embolus

    Luna_Embolus New Metal Member

    Joined:
    Oct 14, 2003
    Messages:
    18
    Likes Received:
    0
    Trophy Points:
    1
    Thanks man :Spin:

    i've actually never really tabbed much before, these are my first real attempts at tabbing stuff, so its good to know i'm doing well. I'll continue to tab out all the songs, i just have to decide which song to do next.
     
  14. christcrusher

    christcrusher Goddess of All

    Joined:
    Jan 3, 2002
    Messages:
    1,550
    Likes Received:
    22
    Trophy Points:
    38
    Location:
    Hollywood, CA USA
    Looks pretty cool....whatever it means...hahha
     
  15. VEHEMENCE

    VEHEMENCE Helping The World To See

    Joined:
    Jan 3, 2002
    Messages:
    4,141
    Likes Received:
    32
    Trophy Points:
    48
    Location:
    Phoenix, Arizona U.S.A.
    Thanks for tabbing that out, ill check to see of it is right and ill post the corrections right after like last time.
     
  16. VEHEMENCE

    VEHEMENCE Helping The World To See

    Joined:
    Jan 3, 2002
    Messages:
    4,141
    Likes Received:
    32
    Trophy Points:
    48
    Location:
    Phoenix, Arizona U.S.A.
    After im through, ill probably start putting these tabs in all the different tab directories/power tabs too
     
  17. Melodeath

    Melodeath Moonbow

    Joined:
    Feb 6, 2004
    Messages:
    3,040
    Likes Received:
    1
    Trophy Points:
    38
    Location:
    Northern VA
    hey guys, thanks a lot for the tabs.
    Vehemence, its really cool that you post here. hope to see you in the future.
     
  18. herjesus

    herjesus Member

    Joined:
    Jul 8, 2002
    Messages:
    372
    Likes Received:
    1
    Trophy Points:
    18
    Location:
    hell
    :headbang: man, i sure wish i still played the guitar....arrrrgh.
    i used to play along to a big book of black sabbath tabs i bought at sam goody.
    thank goodness i realized i was horrible at the guitar and should just stick to vocals at which i am not so horrible....
    metal!!!!!!!!!!beeeyatch
     
  19. Melodeath

    Melodeath Moonbow

    Joined:
    Feb 6, 2004
    Messages:
    3,040
    Likes Received:
    1
    Trophy Points:
    38
    Location:
    Northern VA
    VEHEMENCE, i have a question about riff 1. when i get to the part:
    |------------------|
    -------------4--2-|
    -----6---5--------|
    -------------------
    --7---7----6------|
    0------------------|

    it just doesn't sound right on my guitar. everything else sounded perfect. Are you sure you didnt put any wrong fret numbers?
     
  20. Commence Destruction

    Commence Destruction Carnage Serenade

    Joined:
    Nov 20, 2002
    Messages:
    551
    Likes Received:
    1
    Trophy Points:
    18
    Location:
    Texas
    heh,its right man, getting decent tone while tuned down that low is pretty hard and thats probably whats contributing to it not sounding the same, orrrrrrrrr youre playing it too slowly, its a tricky shift,really quick and the distance between the notes is new to me as well,not very common at all,this riff is pretty hard imo,I cant seem to get down the tremolo'd feel to it. :erk:
     

Share This Page

  • About Us

    Our music community has been around for almost 15 years and we pride ourselves on offering great metal music discussion, as well as music production and other closely related topics. We work hard every day to make sure our community is one of the best. Enjoy!
  • Like us on Facebook

  • Donate ♥

    We have worked hard for 15 years (and running) to make sure our Metal community is running fast, uses the best software, and isn't overloaded with advertising. If you love the forum as much as we love bringing it to you, please show your support with a generous donation. We really appreciate it!