This site is supported by the advertisements on it, please disable your AdBlocker so we can continue to provide you with the quality content you expect.

Welcome to Our Community

Wanting to join the rest of our members? Feel free to sign up today.

Into Eternity Guitar Tabs

Discussion in 'Into Eternity' started by timroth-intoeternity, Jan 29, 2005.

Thread Status:
Not open for further replies.
  1. timroth-intoeternity

    Joined:
    Jan 28, 2005
    Messages:
    53
    Likes Received:
    0
    Trophy Points:
    6
    Location:
    Regina,Saskatchewan/Canada
    Hey Everyone!

    When I have a bit of time I like to tab out requests for certain licks/riffs off our albums. I know what it is like trying to find out how to play my favprite bands music.


    Tim
     
  2. timroth-intoeternity

    Joined:
    Jan 28, 2005
    Messages:
    53
    Likes Received:
    0
    Trophy Points:
    6
    Location:
    Regina,Saskatchewan/Canada
    * tune guitar down to C *

    ** this is the beginning clean intro. It is played with distortion at the end of the song as well. There is a second guitar that harmonizes this riff, which is played by Rob. **


    ,Tim


    ELYSIUM DREAM


    ---12-----8---10-----------------------------------7---3--------8---7-----------------7-----
    --------------------------10---------------------------------5-------------8--------8---------
    ----------------------9--------------------5---4--------------------------------9-------------
    --------------------------------------7--------------------------------------------------------
    ---------------------------------5------------------------------------------------------------
    -----------------------------------------------------------------------------------------------


    ---12-----8---10-----------------------------------7---3--------8---7-----------------7-----
    --------------------------10---------------------------------5-------------8--------8---------
    ----------------------9--------------------5---4--------------------------------9-------------
    --------------------------------------7--------------------------------------------------------
    ---------------------------------5------------------------------------------------------------
    -----------------------------------------------------------------------------------------------


    ---------------------------------------------------7---3--------8---7------------------7----
    ------------------------------------------------------------5-------------8--------8--------
    ---------------------------------------5---4----------------------------------9-------------
    ----------------------------------7---------------------------------------------------------
    ---7---3---5---------------5---------------------------------------------------------------
    -----------------3---5----------------------------------------------------------------------


    ---12-----8---10-----------------------------------7---3--------8---7-----------------7-----
    --------------------------10---------------------------------5-------------8--------8---------
    ----------------------9--------------------5---4--------------------------------9-------------
    --------------------------------------7--------------------------------------------------------
    ---------------------------------5------------------------------------------------------------
    -----------------------------------------------------------------------------------------------
     
  3. timroth-intoeternity

    Joined:
    Jan 28, 2005
    Messages:
    53
    Likes Received:
    0
    Trophy Points:
    6
    Location:
    Regina,Saskatchewan/Canada
    ** All of the instuments on our albums are tuned down to C. **

    * This beginning piece is played in a 7/4 timing. *




    Here is the intro piece that I play : (TIM)

    ---7-----------7-----------8----------7----------7-------------------------------
    ------------------------------------------------------------10----------8---------
    ---------9-----------9-----------9----------9---------9----------9---------9----
    -----------------------------------------------------------------------------------
    -----------------------------------------------------------------------------------
    -----------------------------------------------------------------------------------

    It goes by itself a couple of times and then the harmony guitar kicks in : (ROB)

    ----------3-----------3----------5-----------3---------3---------2----------0----
    ---0------------0-----------0----------0---------0----------0----------0---------
    ------------------------------------------------------------------------------------
    ------------------------------------------------------------------------------------
    ------------------------------------------------------------------------------------
    ------------------------------------------------------------------------------------
     
  4. timroth-intoeternity

    Joined:
    Jan 28, 2005
    Messages:
    53
    Likes Received:
    0
    Trophy Points:
    6
    Location:
    Regina,Saskatchewan/Canada
    * tune guitar down 2 stpes to C *


    This is an old school song off the first album.


    ** This intro is done all with hammerons and pulloffs. I hold the 6th and 4th strings to mute them when I'm playing part A . Both lines are harmonized in 4ths. **



    ----------------------------------------------------------------
    ----------------------------------------------------------------
    ----------------------------------------------------------------
    ---------------------------------------------------------------- ( A )
    ---12--0--8--0--12--0--8--0--12--0--8--0--12--0--8--0---
    ----------------------------------------------------------------


    -------------------------------------------------------------------------
    -------------------------------------------------------------------------
    ------------------------------------------------------------------------- ( A )
    -------------------------------------------------------------------------
    ---7---0---8---0---7---0---8---0---7---0---8---0---7---0---8---0---
    -------------------------------------------------------------------------



    * The lick moves down a string now. I hold the 5th and 3rd strings to mute them as I hammer and pull the notes. The two lines are harmonized in 4ths. *



    ---------------------------------------------------------------
    ---------------------------------------------------------------
    --------------------------------------------------------------- ( B )
    ---12--0--8--0--10--0--7--0--8--0--10--0--8--0--7--0---
    ---------------------------------------------------------------
    ---------------------------------------------------------------


    ---------------------------------------------------------------
    ---------------------------------------------------------------
    --------------------------------------------------------------- ( B )
    ---12--0--8--0--10--0--7--0--8--0--10--0--8--0--5--0---
    ---------------------------------------------------------------
    ---------------------------------------------------------------




    ** Here comes the chorus sort of riff. **

    " look to the sky....."

    ------------------------------------------------------------------
    ------------------------------------------------------------------
    ------------------------------------------------------------------ ( C )
    ---9-------------9-------------10------------10----------------
    -------7--7--7------7--7--7-------7--7--7-------7--7--7------
    ------------------------------------------------------------------


    ------------------------------------------------------------------
    ------------------------------------------------------------------
    ------------------------------------------------------------------ ( C )
    ---7-------------7-------------5-------------5------------------
    -------5--5--5------5--5--5------3--3--3------2--2--2--------
    ------------------------------------------------------------------


    ------------------------------------------------------------------
    ------------------------------------------------------------------
    ------------------------------------------------------------------ ( C )
    ---9-------------9-------------10------------10----------------
    -------7--7--7------7--7--7-------7--7--7-------7--7--7------
    ------------------------------------------------------------------


    -------------------------------------------------------------------
    -------------------------------------------------------------------
    ------------------------------------------------------------------- ( C )
    ---12-------------12-------------10-------------10--------------
    --------9--9--9--------9--9--9-------9--9--9--------9--9--9----
    -------------------------------------------------------------------
     
  5. timroth-intoeternity

    Joined:
    Jan 28, 2005
    Messages:
    53
    Likes Received:
    0
    Trophy Points:
    6
    Location:
    Regina,Saskatchewan/Canada
    BURIED IN OBLIVION

    * tune all guitars down 2 steps to C . *

    ** This is the beginning riff. It is played underneath the solo and during the singing verses. **


    -------0-----------------0----------------0---------0---------------0-------------0---
    ------------6-----------------6---------------------------6--------------6-------------
    -----------------5------------------5---------------------------5--------------5-------
    ---0---------------------------------------------0--------------------------------------
    -----------------------------------------------------------------------------------------
    -----------------------------------------------------------------------------------------






    -------0-----------------0----------------0---------0---------------0-------------0---
    ------------6-----------------6---------------------------6--------------6-------------
    -----------------5------------------5---------------------------5--------------5-------
    ---7---------------------------------------------7--------------------------------------
    -----------------------------------------------------------------------------------------
    -----------------------------------------------------------------------------------------



    ----------------------0---------------------------------------0--------------------
    ------------------0-------0------------------------------0--------0---------------
    ------------10----------------10-------------------10----------------10----------
    -------10--------------------------10---------10---------------------------10----
    ---8---------------------------------------8---------------------------------------
    ------------------------------------------------------------------------------------



    ----------------------0---------------------------0--------------------------------
    ------------------0-------0-----------------------0--------------------------------
    ------------10----------------10-----------------10-------------------------------
    -------10--------------------------10------------10-------------------------------
    ---7-----------------------------------------------7--------------------------------
    -------------------------------------------------------------------------------------





    *** Here is the intro guitar solo ( Tim ) . I'm not tabbing out the slides and pull-offs ect. Just listen for that stuff. There also is a harmony guitar in parts of the solo. It is done in thirds. This is just the basic solo, so you all can play along. ***



    ------5---7---5--------5---7---8---7---8---10-----8---7---8-----7---5---7------5---3---5--
    ---5----------------5----------------------------------------------------------------------------
    --------------------------------------------------------------------------------------------------
    --------------------------------------------------------------------------------------------------
    --------------------------------------------------------------------------------------------------
    --------------------------------------------------------------------------------------------------


    ------5---7---5-------5---7---8---7---8---10---8---7---8---7------------------------------
    ---5---------------5------------------------------------------------8-------------------------
    --------------------------------------------------------------------------9--------------------
    ------------------------------------------------------------------------------------------------
    ------------------------------------------------------------------------------------------------
    ------------------------------------------------------------------------------------------------


    ------5---7---5--------5---7---8---7---8---10-----8---7---8-----7---5---7------5---3---5--
    ---5----------------5----------------------------------------------------------------------------
    --------------------------------------------------------------------------------------------------
    --------------------------------------------------------------------------------------------------
    --------------------------------------------------------------------------------------------------
    --------------------------------------------------------------------------------------------------


    ---12---12---12---12---12---12---12---12---12---12---12---12---12---12---12---12---
    ------------------------------------------------------------------------------------------------
    ------------------------------------------------------------------------------------------------
    ------------------------------------------------------------------------------------------------
    ------------------------------------------------------------------------------------------------
    ------------------------------------------------------------------------------------------------


    ---12---13---15---13---12----------12-----------------------------------------------------
    --------------------------------13--------13-------------------------------------------------
    ------------------------------------------------12---10---9---10---9-------9----------------
    -------------------------------------------------------------------------10------10---9---7--
    ------------------------------------------------------------------------------------------------
    ------------------------------------------------------------------------------------------------


    -------------------------------------------------------------10---12---13---12-----13---12---10---10---12---
    -------------------------------------------10---12---13--------------------------------------------------------
    -----------------------7---9---10---9-------------------------------------------------------------------------
    ---7---9---10---9---------------------------------------------------------------------------------------------
    ----------------------------------------------------------------------------------------------------------------
    ----------------------------------------------------------------------------------------------------------------




    **** This is the chorus riff ****



    -------0--------------0--------------0-------------0--------------0-------------0-------------
    ------------10------------10----------------------------5-------------5-----------------------
    ------------------9-------------9-----------------------------4-------------4------------------
    ---7------------------------------------------2-------------------------------------------------
    -------------------------------------------------------------------------------------------------
    -------------------------------------------------------------------------------------------------


    -------0-----------------0--------------0-----------0--------------0---------------0---------
    -------------6----------------6---------------------------6--------------6---------------------
    -------------------5----------------5--------------------------5---------------5---------------
    ---3--------------------------------------------3-----------------------------------------------
    -------------------------------------------------------------------------------------------------
    -------------------------------------------------------------------------------------------------
     
  6. timroth-intoeternity

    Joined:
    Jan 28, 2005
    Messages:
    53
    Likes Received:
    0
    Trophy Points:
    6
    Location:
    Regina,Saskatchewan/Canada
    * guitar tuned down 2 steps to C *


    ** This is the neat little interlude in Isolation from 2:43 to 3:06 . The harmony guitar comes in after and harmonizes 2 of the licks. That is done with thirds. This is just my part that I play. **

    , Tim

    ISOLATION

    ---0---5---7---8-----------------------------------------------------------
    ---------------------0---5---7---8------------5---7---8---7---5---4------
    ---------------------------------------0---4------------------------------
    ---------------------------------------------------------------------------
    ---------------------------------------------------------------------------
    ---------------------------------------------------------------------------


    ---0---5---7---8----------------------10---9---7-------------------12----
    ---------------------0---5---7---8-------------------10---9---7-----------
    ---------------------------------------------------------------------------
    ---------------------------------------------------------------------------
    ---------------------------------------------------------------------------
    ---------------------------------------------------------------------------


    ---0---5---7---8-----------------------------------------------------------
    ---------------------0---5---7---8------------5---7---8---7---5---4------
    ---------------------------------------0---4------------------------------
    ---------------------------------------------------------------------------
    ---------------------------------------------------------------------------
    ---------------------------------------------------------------------------



    ---0---5---7---8----------------------10---8---7---------------------------
    ---------------------0---5---7---8-------------------10---8---7------------
    ----------------------------------------------------------------------9----
    ---------------------------------------------------------------------------
    ---------------------------------------------------------------------------
    ---------------------------------------------------------------------------
     
  7. timroth-intoeternity

    Joined:
    Jan 28, 2005
    Messages:
    53
    Likes Received:
    0
    Trophy Points:
    6
    Location:
    Regina,Saskatchewan/Canada
    * tune guitar 2 steps down to C *


    Hello Everyone.... I thought I'd tab out some of Splintered Visions. The beginning speed picking part is tabbed out in A , B , C and D . Rob and I double this part live. The harmonies are all done in thirds. The 4 licks are meant to played one after each other, with a slide connecting each phrase.







    ------------------15--17--19--17--15--------------------
    ---15--17--19---------------------------19--17--15------
    ---------------------------------------------------------- ( A )
    ----------------------------------------------------------
    ----------------------------------------------------------
    ----------------------------------------------------------


    ------------------14--15--17--15--14--------------------
    ---14--15--17---------------------------17--15--14------
    ---------------------------------------------------------- ( B )
    ----------------------------------------------------------
    ----------------------------------------------------------
    ----------------------------------------------------------


    ------------------12--14--15--14--12--------------------
    ---12--14--15---------------------------15--14--12------
    ----------------------------------------------------------
    ---------------------------------------------------------- ( C )
    ----------------------------------------------------------
    ----------------------------------------------------------


    ------------------10--12--14--12--10--------------------
    ---11--12--14----------------------------14--12--11-----
    ---------------------------------------------------------- ( D )
    ----------------------------------------------------------
    ----------------------------------------------------------
    ----------------------------------------------------------



    ** here are the next two licks which come in after the speed picking at 0:11 . **



    ---12--10--8----------------------------7--8--10--7--8--7---------
    ----------------12--10--8---7--8--10-------------------------8-----
    ---------------------------------------------------------------------
    ---------------------------------------------------------------------
    ---------------------------------------------------------------------
    ---------------------------------------------------------------------



    ---12--10--8----------------------------7--8--10--7--8--7--------
    ----------------12--10--8---7--8--10-------------------------------
    ----------------------------------------------------------------9---
    ---------------------------------------------------------------------
    ---------------------------------------------------------------------
    ---------------------------------------------------------------------


    *** At 0:19 , the minor arpeggio's come into the song and push the introduction into a moving sort of theme. These arpeggios are all connected with slides. ***



    -----------------------15--19--15--14--17--15--14---------------------------
    ------------------17-----------------------------------15-----------------------
    -------------16----------------------------------------------14--12--11--12---
    --------17-----------------------------------------------------------------------
    ---19----------------------------------------------------------------------------
    ----------------------------------------------------------------------------------




    -----------------------10--14--10--9--12--10--9------------------------------
    ------------------12----------------------------------10------------------------
    -------------11---------------------------------------------9--7--6--7---------
    --------12-----------------------------------------------------------------------
    ---14----------------------------------------------------------------------------
    ----------------------------------------------------------------------------------


    -----------------------5---9---5---3---7---3-----------------------------------
    ------------------7-------------------------------5------------------------------
    -------------6------------------------------------------4------------------------
    --------7------------------------------------------------------------------------
    ---9---------------------------------------------------------7-------------------
    ----------------------------------------------------------------------------------


    ---12--10--8----------------------------7--8--10--7--8--7---------
    ----------------12--10--8---7--8--10-------------------------8-----
    ---------------------------------------------------------------------
    ---------------------------------------------------------------------
    ---------------------------------------------------------------------
    ---------------------------------------------------------------------


    -----------------------15--19--15--14--17--15--14---------------------------
    ------------------17-----------------------------------15-----------------------
    -------------16----------------------------------------------14--12--11--12---
    --------17-----------------------------------------------------------------------
    ---19----------------------------------------------------------------------------
    ----------------------------------------------------------------------------------


    -----------------------10--14--10--9--12--10--9------------------------------
    ------------------12----------------------------------10------------------------
    -------------11---------------------------------------------9--7--6--7---------
    --------12-----------------------------------------------------------------------
    ---14----------------------------------------------------------------------------
    ----------------------------------------------------------------------------------


    -----------------------5---9---5---3---7---3-----------------------------------
    ------------------7-------------------------------5------------------------------
    -------------6------------------------------------------4------------------------
    --------7------------------------------------------------------------------------
    ---9---------------------------------------------------------7-------------------
    ----------------------------------------------------------------------------------



    ---12--10--8----------------------------7--8--10--7--8--7--------
    ----------------12--10--8---7--8--10-------------------------------
    ----------------------------------------------------------------9---
    ---------------------------------------------------------------------
    ---------------------------------------------------------------------
    ---------------------------------------------------------------------
     
Thread Status:
Not open for further replies.

Share This Page