This site is supported by the advertisements on it, please disable your AdBlocker so we can continue to provide you with the quality content you expect.

Welcome to Our Community

Wanting to join the rest of our members? Feel free to sign up today.

New Borknagar Tabs!!!!!(Ad Noctum and Winter Millenium )

Discussion in 'Borknagar' started by himself1, Sep 21, 2012.

  1. himself1

    himself1 New Metal Member

    Joined:
    Sep 21, 2012
    Messages:
    7
    Likes Received:
    0
    Trophy Points:
    1
    Location:
    USA
    Just tabbed these, don't know if they've been tabbed before or not. There a little rough but feel free to add to them!
    (Note:Tabs don't show up properly on here)

    Artist: Borknagar
    Song:Ad Noctum
    Album: The Archaic Course
    Released In 1998

    Tabbed By Roscoe Himself
    Feel free to add to the tab...as long as you credit me ;)

    Rhythm Guitar Only
    Standard E Tuning


    Riff 1 Chords

    -------
    -------
    -------
    -10--8-
    -10--8-
    -8---6-

    Riff 2 Chords

    ------
    -5--3-
    -5--3-
    -5--3-
    -3--1-
    ------

    Riff 3 Chords

    ---
    ---
    ---
    -5-
    -5-
    -3-

    Riff 4a Chords

    ---------
    ---------
    ---------
    -7-5-3-2-
    -7-5-3-2-
    -5-3-1-0-

    Riff 4b Chords

    --------
    --------
    --------
    -----8-7-
    -5-3-6-5-
    -3-1-6-5-

    Riff 5 Chords
    (note: on the second time around when the open E chord comes along dont play the fill)

    -----------------------
    -----------------------
    -----------------------
    -4------------9-11-11-9-
    -4-2-4-2-4-2-7--9--9-7-
    -2-2-2-2-2-0-----------
    F I L L

    Riff 6 Chords:

    ---
    ---
    -6-
    -6-
    -4-
    ---

    Riff 7

    --------------------------
    --------------------------
    --------------------------
    --------------------------
    -7-10-9-6-9-8-5-8-7-4-7-6-
    --------------------------

    Riff 8a Chords (3x)

    --------
    --------
    -8-10-6-
    -8-10-6-
    -6-8--4-
    -6-8--4-

    Riff 8b Chords (1x)

    --------
    --------
    -8-11-9-
    -8-11-9-
    -6-9--7-
    -6-9--7-

    Riff 9 Chords

    -----
    -----
    -----
    -4-2-
    -4-2-
    -2-0-

    Outro

    ----
    ----
    -8/-
    -8/-
    -6/-
    ----
     
  2. himself1

    himself1 New Metal Member

    Joined:
    Sep 21, 2012
    Messages:
    7
    Likes Received:
    0
    Trophy Points:
    1
    Location:
    USA
    Artist: Borknagar
    Song: Winter Millenium
    Album: The Archaic Course
    Released In 1998

    Tabbed By Roscoe Himself
    Feel free to add to the tab...as long as you credit me ;)

    Rhythm Guitar Only
    Standard E Tuning


    Riff 1a Chords

    ----------
    -9--5-5-5-
    -10-5-6-5-
    -10-7-6-7-
    -8--7-4-7-
    ----5---5-

    Riff 1b Chords

    ---------
    -8-7-3-1-
    -9-7-5-2-
    -9-7-5-2-
    -7-5-3-0-
    ---------

    Riff 2 Chords

    -0---2-1---
    -1-1-3-1-0-
    -2-0-2-2-1-
    -2-2-0-3-2-
    -0-3-----2-
    -----------

    Riff 3 Chords

    --------
    --------
    -4-7---9-
    -4-7-7-9-
    -2-5-7-7-
    -----5---

    Riff 4 Chords

    --------------
    --------------
    -2-10-9-7---9-
    -2-10-9-7-7-9-
    -0-8--7-5-7-7-
    ----------5---

    Riff 5a Chords

    ---------
    ---------
    -----7---
    -2-7-7-5-
    -2-7-5-5-
    -0-5---3-

    Riff 5b Chords

    -----------
    -----------
    -----------
    -2-7-5-4-2-
    -2-7-5-4-2-
    -0-5-3-2-0-

    Riff 5c Chords

    -----------------
    -----------------
    ------9-14-7-9--
    -9-14-9-14-7-9-
    -9-14-7-12-5-7-
    -7-12-----------

    Riff 5d Chords

    ----------------------------
    ----------------------------
    -9-14-12-11-9-7-5-4-5-7-9-
    -9-14-12-11-9-7-5-4-5-7-9-
    -7-12-10-9--7-5-3-2-3-5-7-
    ----------------------------

    Riff 6 chords (similar to Riff 2 chords)

    Riff 7a

    --------------
    --------------
    --------------
    --------------
    -2-3/5-2/7-0/2
    --------------

    Riff 7b (unsure about this)

    -------------------------7-8-10-12-
    --------------------8-10-----------
    --------------7-9-10---------------
    -------7-9-10----------------------
    -7-9-10----------------------------
    -----------------------------------
     
  3. himself1

    himself1 New Metal Member

    Joined:
    Sep 21, 2012
    Messages:
    7
    Likes Received:
    0
    Trophy Points:
    1
    Location:
    USA
    Artist: Borknagar
    Song: The Witching Hour
    Album: The Archaic Course
    Released In 1998

    Tabbed By Roscoe Himself
    Feel free to add to the tab...as long as you credit me

    Rhythm Guitar Only
    Standard E Tuning




    Riff 1 Chords

    ---------
    ---6-----
    -3-7-3-1-
    -5-7-5-3-
    -5-5-5-3-
    -3---3-1-

    Riff 2 Chords

    ---------
    ---------
    ---------
    -5-7-5-3-
    -5-7-5-3-
    -3-5-3-1-

    Riff 3 Chords

    -----------
    -4-3-------
    -5-4-2-3-0-
    -5-4-4-5-2-
    -3-2-4-5-2-
    -----2-3-0-

    Riff 4 Chords

    ----------
    ----------
    ----------
    -4-7-9-11-
    -4-7-9-11-
    -2-5-7-9--

    Riff 5 Chords

    ------------
    -8-10-5-7-6-
    -9-11-6-8-7-
    -9-11-6-8-7-
    -7-9--4-6-5-
    ------------

    Riff 6 Chords

    -----------------
    -----------------
    ---7-5-3---------
    -7-7-5-3-7-5-7-9-
    -7-5-3-1-7-5-7-9-
    -5-------5-3-5-7-

    Outro

    ---
    ---
    ---
    -7-
    -7-
    -5-
     
  4. himself1

    himself1 New Metal Member

    Joined:
    Sep 21, 2012
    Messages:
    7
    Likes Received:
    0
    Trophy Points:
    1
    Location:
    USA
    Artist: Borknagar
    Song: The Black Token
    Album: The Archaic Course
    Released In 1998

    Tabbed By Roscoe Himself
    Feel free to add to the tab...as long as you credit me

    Rhythm Guitar Only
    Standard E Tuning

    Riff 1 chords

    ------------------
    -9----5-----------
    -10-5-6-4-9-5-4-2-
    -10-7-6-4-9-5-4-2-
    -8--7-4-2-7-3-2-0-
    ----5-------------


    Riff 2 Chords

    -------------------
    -------------------
    -------------------
    -3/-4-9/-10-8/-9-6/-7-
    -3/-4-9/-10-6/-7-4/-5-
    -1/-2-7/-8--6/-7-4/-5-

    Riff 3 Chords

    ------------
    ------------
    -8-14---8---
    -8-14-6-8-7-
    -6-12-6-6-7-
    ------4---5-

    Riff 4 Chords

    --------------------------------------
    --------------------------------------
    -9-10-8-9-10-8-14-9-10-8-9-10-8-7---
    -9-10-8-9-10-8-14-9-10-8-9-10-8-7-4-
    -7-8--6-7-8--6-12-7-8--6-7-8--6-5-4-
    ------------------------------------2-

    Riff 5a (fill)

    -------
    -------
    ---4-7-
    -2-4-7-
    -2-2-5-
    -0-----

    Riff 5b

    ----------------
    ----------------
    -9-14-12-11-4-7-
    -9-14-12-11-4-7-
    -7-12-10-9--2-5-
    ----------------

    Riff 6

    ---------
    ---------
    -7---7---
    -7-7-7-5-
    -5-7-5-5-
    ---5---3-
     
  5. himself1

    himself1 New Metal Member

    Joined:
    Sep 21, 2012
    Messages:
    7
    Likes Received:
    0
    Trophy Points:
    1
    Location:
    USA
    Hope that helps some of you borkians, sorry about any errors and lack of leads, hopefully someone will complete these and put them into guitar pro. Eventually I'll learn the remaining songs from Archaic and maybe some from the s/t....and beyond ;)
     
  6. himself1

    himself1 New Metal Member

    Joined:
    Sep 21, 2012
    Messages:
    7
    Likes Received:
    0
    Trophy Points:
    1
    Location:
    USA
    Artist: Borknagar
    Song: Universal
    Album: The Archaic Course
    Released In 1998

    Tabbed By Roscoe Himself
    Feel free to add to the tab...as long as you credit me ;)

    Rhytym Guitar Only
    Standard E Tuning

    Riff 1 A

    ---
    ---
    ---
    -3-
    -3-
    -1-


    Riff 1b

    ------0-0------------
    --1---3-0------------
    --2-0-2-0------------
    --2-2-0-0------------
    --0-2---2------------
    ----0---3------------


    Riff 2

    ---------------------
    -5-2-5-----5-2-------
    -6-2-6-9-4-6-2-9-4---
    -6-2-6-9-4-6-2-9-4-5-
    -4-0-4-7-2-4-0-7-2-5-
    -------------------3-


    Riff 3a

    -----------
    -6-------6-
    -7-5-3-5-7-
    -7-5-3-5-7-
    -5-3-3-3-5-
    -----------

    Riff 3b(same progression as Riff 3a but 1 whole step up in Emin)
    Riff 3c(same progression as Riff 3a but 1 whole step down in Cmin)
    Riff 3a

    Riff 4

    ---------------
    ---------------
    ------------14--
    -5-7-10-12-14--
    -5-7-10-12-12--
    -3-5-8--10-----


    Riff 5

    ----------------
    ----------------
    -14-12-9-10-7---
    -14-12-9-10-7-7-
    -12-10-7-8--5-7-
    ---------------5-


    Riff 6

    --------------
    --------------
    -14-7-12-10-9-
    -14-7-12-10-9-
    -12-5-10-8--7-
    --------------

    Riff 6 fill

    ----------
    ----------
    -14-12-10-
    -14-12-10-
    -12-10-8--
    ----------


    Riff 7a

    ---------------------------------
    ---------------------------------
    -14-14-12-10-14-12-10-10-14-12-10-
    -14-14-12-10-14-12-10-10-14-12-10-
    -12-12-10-8--12-10-8--8--12-10-8--
    ---------------------------------

    Riff 7b

    --------------------------
    --------------------------
    -14-14-12-1014-12-10-10-9-
    -14-14-12-1014-12-10-10-9-
    -12-12-10-8-12-10-8--8--7-
    --------------------------0-


    Outro

    ---
    -5-
    -5-
    -7-
    -7-
    -5-
     
  7. himself1

    himself1 New Metal Member

    Joined:
    Sep 21, 2012
    Messages:
    7
    Likes Received:
    0
    Trophy Points:
    1
    Location:
    USA
    Did these tabs help anyone out? If so I will post more....if it was not in vain ;)
     

Share This Page

  • About Us

    Our music community has been around for almost 15 years and we pride ourselves on offering great metal music discussion, as well as music production and other closely related topics. We work hard every day to make sure our community is one of the best. Enjoy!
  • Like us on Facebook

  • Donate ♥

    We have worked hard for 15 years (and running) to make sure our Metal community is running fast, uses the best software, and isn't overloaded with advertising. If you love the forum as much as we love bringing it to you, please show your support with a generous donation. We really appreciate it!