This site is supported by the advertisements on it, please disable your AdBlocker so we can continue to provide you with the quality content you expect.

Welcome to Our Community

Wanting to join the rest of our members? Feel free to sign up today.

Tabs!

Discussion in 'The Absence' started by ihave27frets, Jan 5, 2006.

  1. ihave27frets

    ihave27frets Member

    Joined:
    Oct 5, 2004
    Messages:
    351
    Likes Received:
    0
    Trophy Points:
    16
    We will post tabs here as soon as they are done, the first one posted is for "Necropolis"

    "Necropolis" by THE ABSENCE
    Tabbed by Eric Pare
    Tuning: C Standard
    ----------------------------------------------------------------------------
    ----------------------------------------------------------------------------
    ----5-2-4-5-7--------------------------------------------------------------------
    2-5-5-2-4-5-7----------------------------------------------------------------------
    2-5-3-0-2-3-5----------------------------------------------------------------------
    0-3---------------------------------------------------------------------------

    ----------------------------------------------------------------------------
    ----------------------------------------------------------------------------
    ------4----------2------------4------------------------------------------------
    --2-5---5--2--1-4---4-1---2-5--5-2-------4------------------------------------------------
    -------------------------------------2-5---5-2----------------------------------
    -0-----------0----------0----------0--------------------------------------------

    ----------------------------------------------------------------------------
    ----------------------------------------------------------------------------
    ----------------------------------------------------------------------------
    ---------------9-7--10-9---------------------------------------------------------
    -7-10-9-12-10------------10-9-6-7-9-------------------------------------------------------
    ----------------------------------------------------------------------------

    ----------------------------------------------------------------------------
    ----------------------------------------------------------------------------
    ----------------------------------------------------------------------------
    ----------------------------------------------------------------------------
    --------------------333333333333-000000000000-222222222222-333333-55555---------------------------
    000000000000-333333----------------------------------------------------------------------

    ----------------------------------------------------------------------------
    ----------------------------------------------------------------------------
    ----------------------------------------------------------------------------
    ----------------------------------------------------------------------------
    --------7h6---10--10---9---9---9---------7p6---10--10-9--12--12-------------
    0-000-0-----0---0----0---0---0---0-000-0-----0---0---0--0--0----------------


    ----------------------------------------------------------------------------
    ----------------------------------------------------------------------------
    ----------------------------------------------------------------------------
    ------------------------------------------------9--9---7-7--7---------------
    --------10h9---12-12--10--10---10---------10p9------------------------------
    8-888-8------8---8---8---8---8----7-777-7-----7---7--7--7-7-----------------

    Solo 1
    ----------------------------------------------------------------------------
    ---------------full-------------------full------------------------------------------
    -------------14^p12-14-16^-16-14-12-14^------------------------------------------------------
    14--14-16-17------------------------------------------------------------------------
    ----------------------------------------------------------------------------
    ----------------------------------------------------------------------------


    ----------------------------------------------------------------------------
    ----------------------------------------------------------------------------
    ----------------------------------------------------------------------------
    ----------------------------------------------------------------------------
    7--7---7---7---7--7---7---7-------------------------------------------------
    -00--00--00-00--00--00--00-00-----------------------------------------------

    ----------------------------------------------------------------------------
    ----------------------------------------------------------------------------
    ----------------------------------------------------------------------------
    ----------------------------------------------------------------------------
    7--7--7--7-9-6---6--6--6---3---3---3--3--5-2--2---2--2----------------------
    -00-00-00-0---00--00-00--00-00--00--00--0---00--00-00-00--------------------

    ----------------------------------------------------------------------------
    ----------------------------------------------------------------------------
    ----------------------------------------------------------------------------
    ----------------------------------------------------------------------------
    10---10---10---10--12-9---9---9---9--7---7---7--7--9-6---6--6--6--6---------
    ---00---00--00---00-----00--00-00--00--00--00-00-0-----00-00-00-00-00-------

    ----------------------------------------------------------------------------
    ----------------------------------------------------------------------------
    -----------------------------4---4----4---4----5-2--2--2--2-------------------------
    5--5--5--5--5-7-4--4--4--4----2-2--2-2-2-2--2-2---00-00-00-00-----------------------------------------
    -33-33-33-33-3---33-33-33-33-----------------------------------------------------------------
    ----------------------------------------------------------------------------

    ----------------------------------------------------------------------------
    ----------------------------------------------------------------------------
    ----------------------------------------------------------------------------
    9-14--12--14-16----------------------------------------------------------------------
    ----------------------------------------------------------------------------
    ----------------------------------------------------------------------------

    Solo 2
    ----------------------------------------------------------------------------
    ----------------------------------------------------------------------------
    ----------16-17-19-16-16h17p16-14-16-14----18^--21^-----------------------------------------------------
    -14-16-17-------------------------------16------------------------------------------
    ----------------------------------------------------------------------------
    ----------------------------------------------------------------------------

    ---------/24-------------------------------17-------14---------------14--------------
    19-17-19-------17-----------------20-------------------------17---------------17----------
    -------------19---16-17-19--16-17----17-19-----14-16---14-16----14-16---14-16-------------------------------
    --------------------------19--------------------------------------------------
    ----------------------------------------------------------------------------
    ----------------------------------------------------------------------------

    ----------------------------------------------------------------------------
    ----------------------------------------------------------------------------
    -16-17-16-14-16-17-16-21--------------------------------------------------------------------
    ----------------------------------------------------------------------------
    ----------------------------------------------------------------------------
    ----------------------------------------------------------------------------


    ----------19---17---------------------------------------------------------------
    ----17-20---20---19-20-19----19-17----------------------------------------------------------
    -19-----------------------19----------------------------------------------------
    ----------------------------------------------------------------------------
    ----------------------------------------------------------------------------
    ----------------------------------------------------------------------------

    ------19-22-19-20---19----------------------------------------------------------------
    ---20------------22---20-19-22-20-------------------------------------------------------
    21----------------------------------------------------------------------------
    ----------------------------------------------------------------------------
    ----------------------------------------------------------------------------
    ----------------------------------------------------------------------------
     
  2. Mark_Palangio

    Mark_Palangio On The Fields Of Life

    Joined:
    Jul 12, 2005
    Messages:
    605
    Likes Received:
    1
    Trophy Points:
    16
    Location:
    Greensburg, PA
    Any idea what tabs will be posted next? :Spin:
     
  3. ihave27frets

    ihave27frets Member

    Joined:
    Oct 5, 2004
    Messages:
    351
    Likes Received:
    0
    Trophy Points:
    16
    What songs do you want?
     
  4. Mark_Palangio

    Mark_Palangio On The Fields Of Life

    Joined:
    Jul 12, 2005
    Messages:
    605
    Likes Received:
    1
    Trophy Points:
    16
    Location:
    Greensburg, PA
    Haha, well...all of them. :Spin:

    I'd love a tab for the "Intro" song, or "Shattered." But like I said, anything works man, there's not a weak song on the album.
     
  5. Helpmehelpyou

    Helpmehelpyou New Metal Member

    Joined:
    Jan 14, 2006
    Messages:
    3
    Likes Received:
    0
    Trophy Points:
    1
    I'd have to second that. But my personal favourite would have to be Heaven Ablaze or Summoning the Darkness.
     
  6. porph

    porph New Metal Member

    Joined:
    Jan 17, 2006
    Messages:
    2
    Likes Received:
    0
    Trophy Points:
    1
    I, Deceiver please! :headbang:
     
  7. Mark_Palangio

    Mark_Palangio On The Fields Of Life

    Joined:
    Jul 12, 2005
    Messages:
    605
    Likes Received:
    1
    Trophy Points:
    16
    Location:
    Greensburg, PA
    Summoning The Darkness reminds me of a Carcass song. :kickass:
     
  8. Sinister Mephisto

    Joined:
    Sep 20, 2005
    Messages:
    2,900
    Likes Received:
    1
    Trophy Points:
    38
    Hey! I just got "From Your Grave" and I think it's great! would it be okay if I tabbed some of the songs and posted them here to be corrected or laughed at or whatever?

    Anyway, thanks for the cool music!
     
  9. XMelodicDeathX

    XMelodicDeathX New Metal Member

    Joined:
    Jan 22, 2006
    Messages:
    1
    Likes Received:
    0
    Trophy Points:
    1
    hey you should post summoning the darkness.....or better yet make an official tab book!cant wait to see u guys the 25th
     
  10. Sinister Mephisto

    Joined:
    Sep 20, 2005
    Messages:
    2,900
    Likes Received:
    1
    Trophy Points:
    38
    Here's my version of Necropolis. Wee bit more detail :D


    NECROPOLIS
    As recorded by The Absence
    (From the 2006 Album FROM YOU GRAVE)

    Words by Jamie Stewart

    Music by Peter Joseph
    Transcribed by F. Sladkey

    All Guitars tuned to C
    Intro - Melody: Peter
    Q=222
    2/2
    Gtrs III, IV
    ||----------------|----------------|---------------|------------------|
    ||o---------------|----------------|---------------|------------------|
    ||--------4-------|---------2------|-------4-------|------------------|
    ||----2-5---5-2---|-----1-4---4-1--|---2-5---5-2---|---------4--------|
    ||o-2-------------|--2-------------|-2-------------|--2--2-5---5-2----|
    ||----------------|----------------|---------------|------------------|
    |
    | Gtrs I, II
    ||----------------|----------------|---------------|------------------|
    ||o---------------|----------------|---------------|------------------|
    ||----------------|----------------|---------------|------------------|
    ||----------------|----------------|-5-------------|-(5)--------------|
    ||o-2-------------|-(2)-----5------|-3-------------|-(3)--------------|
    ||--0-------------|-(0)-----3------|-3-------------|-(3)--------------|


    1.
    |---------------|-----------------|---------------|----------------||
    |---------------|-----------------|---------------|---------------o||
    |-------4-------|---------2-------|-------4-------|----------------||
    |---2-5---5-2---|-----1-4---4-1---|---2-5---5-2---|-------4--------||
    |-2-------------|--2--------------|-2-------------|-2-2-5---5-2---o||
    |---------------|-----------------|---------------|----------------||
    |
    |---------------|-----------------|---------------|----------------||
    |---------------|-----------------|---------------|---------------o||
    |---------------|-----------------|---------------|----------------||
    |-2-------------|-(2)-------------|-4-------------|-5-----7--------||
    |-0-------------|-(0)-------------|-2-------------|-3-----5-------o||
    |---------------|-----------------|---------------|----------------||


    2.
    Gtr III
    |---------------|-----------------|---------------|----------------|
    |---------------|-----------------|--------3------|----------------|
    |-------4-------|---------2-------|------4---4----|-------2--------|
    |---2-5---5-2---|-----1-4---4-1---|-2-5--------5--|-----4----4-----|
    |-2-------------|--2--------------|---------------|-5-5--------5---|
    |---------------|-----------------|---------------|----------------|
    |
    | Gtr IV
    |---------------|-----------------|---------------|----------------|
    |---------------|-----------------|---------------|----------------|
    |-------4-------|---------2-------|--------4------|----------------|
    |---2-5---5-2---|-----1-4---4-1---|---2--5---5-2--|-------4--------|
    |-2-------------|--2--------------|-2-------------|-2-2-5----5-2---|
    |---------------|-----------------|---------------|----------------|
    |
    | Gtrs I, II
    |---------------|-----------------|---------------|----------------|
    |---------------|-----------------|---------------|----------------|
    |---------------|-----------------|---------------|----------------|
    |-2-------------|-(2)-------------|-4-------------|----------------|
    |-0-------------|-(0)-------------|-2-------------|-------7\-------|
    |---------------|-----------------|---------------|-------7\-------|


    ||----------------|----------------|---------------|-----------------|
    ||o-------3-------|---------1------|-------3-------|-----------------|
    ||------4---4-----|-------2---2----|-----4---4-----|---------2-------|
    ||--2-5-------5---|--2--4-------4--|-2-5-------5---|-------4---4-----|
    ||o---------------|----------------|---------------|--5--5-------5---|
    ||----------------|----------------|---------------|-----------------|
    |
    ||----------------|----------------|---------------|-----------------|
    ||o---------------|----------------|---------------|-----------------|
    ||--------4-------|---------2------|-------4-------|-----------------|
    ||----2-5---5-2---|-----1-4---4-1--|---2-5---5-2---|---------4-------|
    ||o-2-------------|--2-------------|-2-------------|--2--2-5---5-2---|
    ||----------------|----------------|---------------|-----------------|
    |
    ||----------------|----------------|---------------|-----------------|
    ||o---------------|----------------|---------------|-----------------|
    ||----------------|----------------|---------------|-----------------|
    ||----------------|----------------|-5-------------|-(5)-------------|
    ||o-2-------------|-(2)-----5------|-3-------------|-(3)-------------|
    ||--0-------------|-(0)-----3------|-3-------------|-(3)-------------|


    |---------------|-----------------|---------------|----------------||
    |-------3-------|---------1-------|-------3-------|---------------o||
    |-----4---4-----|-------2---2-----|-----4---4-----|-------2--------||
    |-2-5-------5---|--2--4-------4---|-2-5-------5---|-----4---4------||
    |---------------|-----------------|---------------|-5-5-------5---o||
    |---------------|-----------------|---------------|----------------||
    |
    |---------------|-----------------|---------------|----------------||
    |---------------|-----------------|---------------|---------------o||
    |-------4-------|---------2-------|-------4-------|----------------||
    |---2-5---5-2---|-----1-4---4-1---|---2-5---5-2---|-------4--------||
    |-2-------------|--2--------------|-2-------------|-2-2-5---5-2---o||
    |---------------|-----------------|---------------|----------------||
    |
    |---------------|-----------------|---------------|----------------||
    |---------------|-----------------|---------------|---------------o||
    |---------------|-----------------|---------------|----------------||
    |-2-------------|-(2)-------------|-4-------------|-5-----7--------||
    |-0-------------|-(0)-------------|-2-------------|-3-----5-------o||
    |---------------|-----------------|---------------|----------------||


    $$
    Gtrs III, IV
    |-----------------------------------|-----------------------------------|
    |-----------------------------------|-----------------------------------|
    |-----------------------------------|-----------------------------------|
    |-----------------------------------|-----------------------------------|
    |-7---------------/10---------------|-9---------------/12---------------|
    |-----------------------------------|-----------------------------------|
    |
    | Gtrs I, II
    | PM------------------------------------------------------------------|
    |-----------------------------------|-----------------------------------|
    |-----------------------------------|-----------------------------------|
    |-----------------------------------|-----------------------------------|
    |-----------------------------------|-----------------------------------|
    |-----------------------------------|-----------------------------------|
    |-0-0-0-0-0-0-0-0---0-0-0-0-0-0-0-0-|-0-0-0-0-0-0-0-0---3-3-3-3-3-3-3-3-|


    |------------------------------------|------------------------------------|
    |------------------------------------|------------------------------------|
    |------------------------------------|------------------------------------|
    |------------------------------------|------------------------------------|
    |-10---------------/14---------------|-12---------------/15---------------|
    |------------------------------------|------------------------------------|
    |
    | PM-------------------------------------------------------------------|
    |------------------------------------|------------------------------------|
    |------------------------------------|------------------------------------|
    |------------------------------------|------------------------------------|
    |------------------------------------|------------------------------------|
    |--3-3-3-3-3-3-3-3---3-3-3-3-3-3-3-3-|--3-3-3-3-3-3-3-3---3-3-3-3-3-3-3-3-|
    |------------------------------------|------------------------------------|


    |-----------------------------------|-----------------------------------|
    |-----------------------------------|-----------------------------------|
    |-----------------------------------|-----------------------------------|
    |-----------------------------------|-----------------------------------|
    |-14--------------------------------|-----------------------------------|
    |------------------15---------------|-14---------------11---------------|
    |
    | PM-----------------------------------------------------------------|
    |-----------------------------------|-----------------------------------|
    |-----------------------------------|-----------------------------------|
    |-----------------------------------|-----------------------------------|
    |-----------------------------------|-----------------------------------|
    |--0-0-0-0-0-0-0-0--0-0-0-0-0-0-0-0-|--0-0-0-0-0-0-0-0--0-0-0-0-0-0-0-0-|
    |-----------------------------------|-----------------------------------|


    |----------------------------------|-----------------------------------|
    |----------------------------------|-----------------------------------|
    |----------------------------------|-----------------------------------|
    |----------------------------------|-----------------------------------|
    |----------------------------------|-----------------------------------|
    |-12-------------------------------|-/14-------------------------------|
    |
    | PM----------------------------------------------------------------|
    |----------------------------------|-----------------------------------|
    |----------------------------------|-----------------------------------|
    |----------------------------------|-----------------------------------|
    |----------------------------------|-----------------------------------|
    |--2-2-2-2-2-2-2-2-2-2-2-2-2-2-2-2-|---3-3-3-3-3-3-3-3-5-5-5-5-5-5-5-5-|
    |----------------------------------|-----------------------------------|


    Gtr III
    |------------------------------------|------------------------------------|
    |------------------------------------|------------------------------------|
    |------------------------------------|------------------------------------|
    |------------------------------------|------------------------------------|
    |-10---------------/14---------------|-12---------------/15---------------|
    |------------------------------------|------------------------------------|
    |
    | Gtr IV
    |------------------------------------|------------------------------------|
    |------------------------------------|------------------------------------|
    |------------------------------------|------------------------------------|
    |------------------------------------|------------------------------------|
    |--7---------------/10---------------|--9---------------/12---------------|
    |------------------------------------|------------------------------------|
    |
    | Gtrs I, II
    | PM-------------------------------------------------------------------|
    |------------------------------------|------------------------------------|
    |------------------------------------|------------------------------------|
    |------------------------------------|------------------------------------|
    |------------------------------------|------------------------------------|
    |------------------------------------|------------------------------------|
    |--0-0-0-0-0-0-0-0---0-0-0-0-0-0-0-0-|--0-0-0-0-0-0-0-0---3-3-3-3-3-3-3-3-|


    |------------------------------------|------------------------------------|
    |------------------------------------|------------------------------------|
    |------------------------------------|------------------------------------|
    |------------------------------------|------------------------------------|
    |-14---------------/17---------------|-15---------------/19---------------|
    |------------------------------------|------------------------------------|
    |
    |------------------------------------|------------------------------------|
    |------------------------------------|------------------------------------|
    |------------------------------------|------------------------------------|
    |------------------------------------|------------------------------------|
    |-10---------------/14---------------|-12---------------/15---------------|
    |------------------------------------|------------------------------------|
    |
    | PM-------------------------------------------------------------------|
    |------------------------------------|------------------------------------|
    |------------------------------------|------------------------------------|
    |------------------------------------|------------------------------------|
    |------------------------------------|------------------------------------|
    |--3-3-3-3-3-3-3-3---3-3-3-3-3-3-3-3-|--3-3-3-3-3-3-3-3---3-3-3-3-3-3-3-3-|
    |------------------------------------|------------------------------------|


    |-----------------------------------|-----------------------------------|
    |-----------------------------------|-----------------------------------|
    |-----------------------------------|-----------------------------------|
    |-----------------------------------|-----------------------------------|
    |-17--------------------------------|-----------------------------------|
    |------------------19---------------|-17---------------14---------------|
    |
    |-----------------------------------|-----------------------------------|
    |-----------------------------------|-----------------------------------|
    |-----------------------------------|-----------------------------------|
    |-----------------------------------|-----------------------------------|
    |-14--------------------------------|-----------------------------------|
    |------------------15---------------|-14---------------11---------------|
    |
    | PM-----------------------------------------------------------------|
    |-----------------------------------|-----------------------------------|
    |-----------------------------------|-----------------------------------|
    |-----------------------------------|-----------------------------------|
    |-----------------------------------|-----------------------------------|
    |--0-0-0-0-0-0-0-0--0-0-0-0-0-0-0-0-|--0-0-0-0-0-0-0-0--0-0-0-0-0-0-0-0-|
    |-----------------------------------|-----------------------------------|


    To Dbl. Coda
    |----------------------------------|-----------------------------------|
    |----------------------------------|-----------------------------------|
    |----------------------------------|-----------------------------------|
    |----------------------------------|-----------------------------------|
    |----------------------------------|-----------------------------------|
    |-15-------------------------------|-/17-------------------------------|
    |
    |----------------------------------|-----------------------------------|
    |----------------------------------|-----------------------------------|
    |----------------------------------|-----------------------------------|
    |----------------------------------|-----------------------------------|
    |----------------------------------|-----------------------------------|
    |-12-------------------------------|-/14-------------------------------|
    |
    | PM----------------------------------------------------------------|
    |----------------------------------|-----------------------------------|
    |----------------------------------|-----------------------------------|
    |----------------------------------|-----------------------------------|
    |----------------------------------|-----------------------------------|
    |--2-2-2-2-2-2-2-2-2-2-2-2-2-2-2-2-|---3-3-3-3-3-3-3-3-5-5-5-5-5-5-5-5-|
    |----------------------------------|-----------------------------------|


    Q=220
    4/4
    Gtr I
    PM------| PM PM PM PM PM
    |--------------------|------------------|
    |--------------------|------------------|
    |--------------------|------------------|
    |--------------------|------------------|
    |-----------7-6---10-|---10---9---9---9-|
    |-0-0-0-0-0-----0----|-0----0---0---0---|
    |
    | Gtr II
    |--------------------|------------------|
    |--------------------|------------------|
    |--------------------|------------------|
    |--------------------|------------------|
    |-2------------------|--------------5---|
    |-0------------------|--------------3---|


    PM------| PM PM PM PM PM
    |--------------------|-------------------|
    |--------------------|-------------------|
    |--------------------|-------------------|
    |--------------------|------------7---7--|
    |-----------7-6---10-|---10---9----------|
    |-0-0-0-0-0-----0----|-0----0---0---0----|
    |
    |--------------------|-------------------|
    |--------------------|-------------------|
    |--------------------|-------------------|
    |--------------------|-------------------|
    |-2------------------|-5--------7--------|
    |-0------------------|-3--------5--------|


    $
    PM------| PM PM PM PM PM
    |---------------------|---------------------|
    |---------------------|---------------------|
    |---------------------|---------------------|
    |------------9-7---10-|---10----9----9----9-|
    |---------------------|---------------------|
    |-8-8-8-8-8------8----|-8----8----8----8----|
    |
    | PM------| PM PM PM PM PM
    |---------------------|---------------------|
    |---------------------|---------------------|
    |---------------------|---------------------|
    |---------------------|---------------------|
    |-----------10-9---12-|---12---10---10---10-|
    |-8-8-8-8-8------8----|-8----8----8----8----|


    PM------| PM PM PM PM PM
    |---------------------|---------------------|
    |---------------------|---------------------|
    |---------------------|---------------------|
    |------------9-7---12-|---12---10---10---10-|
    |---------------------|---------------------|
    |-7-7-7-7-7------7----|-7----7----7----7----|
    |
    | PM------| PM PM PM PM PM
    |---------------------|---------------------|
    |---------------------|---------------------|
    |---------------------|---------------------|
    |-------------------9-|----9----7----7----7-|
    |-----------10-9------|---------------------|
    |-7-7-7-7-7------7----|-7----7----7----7----|


    Verse
    Gtrs I, II
    PM------| PM PM PM PM PM
    |--------------------|------------------|
    |--------------------|------------------|
    |--------------------|------------------|
    |--------------------|------------------|
    |-----------7-6---10-|---10---9---9---9-|
    |-0-0-0-0-0-----0----|-0----0---0---0---|


    PM------| PM PM PM PM PM
    |--------------------|------------------|
    |--------------------|------------------|
    |--------------------|------------------|
    |--------------------|------------7---7-|
    |-----------7-6---10-|---10---9---------|
    |-0-0-0-0-0-----0----|-0----0---0---0---|


    Gtr I
    PM------| PM PM PM PM PM
    |---------------------|---------------------|
    |---------------------|---------------------|
    |---------------------|---------------------|
    |------------9-7---10-|---10----9----9----9-|
    |---------------------|---------------------|
    |-8-8-8-8-8------8----|-8----8----8----8----|
    |
    | Gtr II
    | PM------| PM PM PM PM PM
    |---------------------|---------------------|
    |---------------------|---------------------|
    |---------------------|---------------------|
    |---------------------|---------------------|
    |-----------10-9---12-|---12---10---10---10-|
    |-8-8-8-8-8------8----|-8----8----8----8----|


    PM------| PM PM PM PM PM
    |---------------------|---------------------|
    |---------------------|---------------------|
    |---------------------|---------------------|
    |------------9-7---12-|---12---10---10---10-|
    |---------------------|---------------------|
    |-7-7-7-7-7------7----|-7----7----7----7----|
    |
    | PM------| PM PM PM PM PM
    |---------------------|---------------------|
    |---------------------|---------------------|
    |---------------------|---------------------|
    |-------------------9-|----9----7----7----7-|
    |-----------10-9------|---------------------|
    |-7-7-7-7-7------7----|-7----7----7----7----|


    Chorus
    PM------| PM PM PM PM PM
    ||---------------------|--------------------|
    ||o--------------------|--------------------|
    ||---------------------|--------------------|
    ||---------------------|--------------------|
    ||o-----------7-6---10-|-----10---9---9---9-|
    ||--0-0-0-0-0-----0----|--0-----0---0---0---|
    |
    ||---------------------|--------------------|
    ||o--------------------|--------------------|
    ||---------------------|--------------------|
    ||---------------------|--------------------|
    ||o-2------------------|-(2)--------5-------|
    ||--0------------------|-(0)--------3-------|


    PM------| PM PM PM PM PM
    |--------------------|---------------------|
    |--------------------|---------------------|
    |--------------------|---------------------|
    |--------------------|--------------7---7--|
    |-----------7-6---10-|-----10---9----------|
    |-0-0-0-0-0-----0----|--0-----0---0---0----|
    |
    |--------------------|---------------------|
    |--------------------|---------------------|
    |--------------------|---------------------|
    |-5------------------|-(5)-----------------|
    |-3------------------|-(3)-----------------|
    |-3------------------|-(3)-----------------|


    PM------| PM PM PM PM PM
    |---------------------|-----------------------|
    |---------------------|-----------------------|
    |---------------------|-----------------------|
    |---------------------|-----------------------|
    |-----------10-9---12-|-----12---10---10---10-|
    |-8-8-8-8-8------8----|--8-----8----8----8----|
    |
    |---------------------|-----------------------|
    |---------------------|-----------------------|
    |---------------------|-----------------------|
    |-2-------------------|-(2)-------------------|
    |-0-------------------|-(0)-------------------|
    |---------------------|-----------------------|


    To Coda
    PM------| PM PM PM PM PM
    |--------------------|------------------||
    |--------------------|-----------------o||
    |--------------------|------------------||
    |------------------9-|---9---7---7---7--||
    |-----------10-9-----|-----------------o||
    |-7-7-7-7-7------7---|-7---7---7---7----||
    |
    |--------------------|------------------||
    |--------------------|-----------------o||
    |--------------------|------------------||
    |-4------------------|-5-------7--------||
    |-2------------------|-3-------5-------o||
    |--------------------|------------------||


    Gtrs I, II
    PM------| PM PM PM PM PM
    |--------------------|------------------|
    |--------------------|------------------|
    |--------------------|------------------|
    |--------------------|------------------|
    |-----------7-6---10-|---10---9---9---9-|
    |-0-0-0-0-0-----0----|-0----0---0---0---|


    D.S. al Coda
    PM------| PM PM PM PM PM
    |--------------------|------------------|
    |--------------------|------------------|
    |--------------------|------------------|
    |--------------------|------------7---7-|
    |-----------7-6---10-|---10---9---------|
    |-0-0-0-0-0-----0----|-0----0---0---0---|
     
  11. Sinister Mephisto

    Joined:
    Sep 20, 2005
    Messages:
    2,900
    Likes Received:
    1
    Trophy Points:
    38
    Bridge- Melody: Peter
    &
    Gtr IV
    |---------------|-------14-(14)--15--|-17b19------17-15h|=17-----|
    |-17------17-17-|-17-----------------|------------------|--------|
    |---------------|--------------------|------------------|--------|
    |---------------|--------------------|------------------|--------|
    |---------------|--------------------|------------------|--------|
    |---------------|--------------------|------------------|--------|
    |
    | Gtr III
    |---------------|--------------------|------------------|--------|
    |---------------|--------------------|------------------|--------|
    |---------------|-------11-(11)--12--|-14b16------14p12-|-14-----|
    |-14------14-14-|-14-----------------|------------------|--------|
    |---------------|--------------------|------------------|--------|
    |---------------|--------------------|------------------|--------|
    |
    | Gtrs I, II
    |---------------|--------------------|------------------|--------|
    |---------------|--------------------|------------------|--------|
    |---------------|--------------------|------------------|--------|
    |---------------|--------------------|--5---------------|-(5)----|
    |--2------------|-(2)--------5-------|--3---------------|-(3)----|
    |--0------------|-(0)--------3-------|--3---------------|-(3)----|


    |-19b20--------|-19----17-(17)--15--|-17b19--------|-17---------|
    |--------------|--------------------|--------------|------------|
    |--------------|--------------------|--------------|------------|
    |--------------|--------------------|--------------|------------|
    |--------------|--------------------|--------------|------------|
    |--------------|--------------------|--------------|------------|
    |
    |--------------|--------------------|--------------|------------|
    |--------------|--------------------|--------------|------------|
    |-16b17--------|-16----14-(14)--12--|-14b16--------|-14---------|
    |--------------|--------------------|--------------|------------|
    |--------------|--------------------|--------------|------------|
    |--------------|--------------------|--------------|------------|
    |
    |--------------|--------------------|--------------|------------|
    |--------------|--------------------|--------------|------------|
    |--------------|--------------------|--------------|------------|
    |--2-----------|-(2)----------------|--4-----------|--5----7----|
    |--0-----------|-(0)----------------|--2-----------|--3----5----|
    |--------------|--------------------|--------------|------------|


    Gtr III
    |---------------|--------------------|------------------|--------|
    |---------------|--------------------|------------------|--------|
    |---------------|-------14-(14)--16--|-17b19------17p16-|-17-----|
    |-17------17-17-|-17-----------------|------------------|--------|
    |---------------|--------------------|------------------|--------|
    |---------------|--------------------|------------------|--------|
    |
    | Gtr IV
    |---------------|-------14-(14)--15--|-17b19------17p15-|-17-----|
    |-17------17-17-|-17-----------------|------------------|--------|
    |---------------|-------11-(11)--12--|-14b16------14p12-|-14-----|
    |-14------14-14-|-14-----------------|------------------|--------|
    |---------------|--------------------|------------------|--------|
    |---------------|--------------------|------------------|--------|
    |
    |---------------|--------------------|------------------|--------|
    |---------------|--------------------|------------------|--------|
    |---------------|--------------------|------------------|--------|
    |---------------|--------------------|--5---------------|-(5)----|
    |--2------------|-(2)--------5-------|--3---------------|-(3)----|
    |--0------------|-(0)--------3-------|--3---------------|-(3)----|


    |--------------|--------------------|--------------|------------|
    |-15b17--------|-15----13-(13)--12--|-13b15--------|-13---------|
    |--------------|--------------------|--------------|------------|
    |--------------|--------------------|--------------|------------|
    |--------------|--------------------|--------------|------------|
    |--------------|--------------------|--------------|------------|
    |
    |-19b20--------|-19----17-(17)--15--|-17b19--------|-17---------|
    |--------------|--------------------|--------------|------------|
    |-16b17--------|-16----14-(14)--12--|-14b16--------|-14---------|
    |--------------|--------------------|--------------|------------|
    |--------------|--------------------|--------------|------------|
    |--------------|--------------------|--------------|------------|
    |
    |--------------|--------------------|--------------|------------|
    |--------------|--------------------|--------------|------------|
    |--------------|--------------------|--------------|------------|
    |--2-----------|-(2)----------------|--4-----------|--5----7----|
    |--0-----------|-(0)----------------|--2-----------|--3----5----|
    |--------------|--------------------|--------------|------------|


    Q=220
    2/2
    Gtr I
    PM| PM| PM| PM| PM| PM| PM| PM|
    ||--------------|-------------|-------------|--------------||
    ||o-------------|-------------|-------------|-------------o||
    ||--------------|-------------|-------------|--------------||
    ||--------------|-------------|-------------|--------------||
    ||o-7-----7-----|-7-----7-----|-7-----7-----|-7-----7-----o||
    ||----0-0---0-0-|---0-0---0-0-|---0-0---0-0-|---0-0---0-0--||


    Gtrs I, II
    PM| PM| PM| PM PM| PM| PM| PM|
    ||--------------|-------------|-------------|-------------|
    ||o-------------|-------------|-------------|-------------|
    ||--------------|-------------|-------------|-------------|
    ||--------------|-------------|-------------|-------------|
    ||o-7-----7-----|-7-----7---9-|-6-----6-----|-6-----6-----|
    ||----0-0---0-0-|---0-0---0---|---0-0---0-0-|---0-0---0-0-|


    PM| PM| PM| PM PM| PM| PM| PM|
    |-------------|-------------|-------------|---------------||
    |-------------|-------------|-------------|--------------o||
    |-------------|-------------|-------------|---------------||
    |-------------|-------------|-------------|---------------||
    |-3-----3-----|-3-----3---5-|-2-----2-----|-2-----2------o||
    |---0-0---0-0-|---0-0---0---|---0-0---0-0-|---0-0---0-0---||


    Gtr I
    PM| PM| PM| PM PM| PM| PM| PM|
    ||----------------|----------------|-------------|-------------|
    ||o---------------|----------------|-------------|-------------|
    ||----------------|----------------|-------------|-------------|
    ||----------------|----------------|-------------|-------------|
    ||o--7------7-----|--7------7----9-|-6-----6-----|-6-----6-----|
    ||-----0-0----0-0-|----0-0----0----|---0-0---0-0-|---0-0---0-0-|
    |
    | Gtr II
    | PM| PM| PM| PM PM| PM| PM| PM|
    ||----------------|----------------|-------------|-------------|
    ||o---------------|----------------|-------------|-------------|
    ||----------------|----------------|-------------|-------------|
    ||----------------|----------------|-------------|-------------|
    ||o-10-----10-----|-10-----10---12-|-9-----9-----|-9-----9-----|
    ||-----0-0----0-0-|----0-0----0----|---0-0---0-0-|---0-0---0-0-|


    PM| PM| PM| PM PM| PM| PM| PM|
    |-------------|-------------|-------------|---------------||
    |-------------|-------------|-------------|--------------o||
    |-------------|-------------|-------------|---------------||
    |-------------|-------------|-------------|---------------||
    |-3-----3-----|-3-----3---5-|-2-----2-----|-2-----2------o||
    |---0-0---0-0-|---0-0---0---|---0-0---0-0-|---0-0---0-0---||
    |
    | PM| PM| PM| PM PM| PM| PM| PM|
    |-------------|-------------|-------------|---------------||
    |-------------|-------------|-------------|--------------o||
    |-------------|-------------|-------------|---------------||
    |-------------|-------------|-------------|---------------||
    |-7-----7-----|-7-----7---9-|-6-----6-----|-6-----6------o||
    |---0-0---0-0-|---0-0---0---|---0-0---0-0-|---0-0---0-0---||


    Lead - Peter Joseph
    Gtr V
    ~~ ~~~~~
    |------------------|----------------|----------------------|-------------------|
    |---------12-13-15-|-12-------------|-12-13-12-10-12-10----|-13b15-------------|
    |-9-11-12----------|----------------|-------------------12-|-------------------|
    |------------------|----------------|----------------------|-------------------|
    |------------------|----------------|----------------------|-------------------|
    |------------------|----------------|----------------------|-------------------|
    |
    | Gtrs I, II
    | PM| PM| PM| PM PM---| PM| PM| PM|
    |------------------|----------------|----------------------|-------------------|
    |------------------|----------------|----------------------|-------------------|
    |------------------|----------------|----------------------|-------------------|
    |-5--------5-------|--5-----5---7---|--4-----------4-------|--4--------4-------|
    |----3--3-----3--3-|----3-3---3-----|-----3-----3-----3--3-|-------3-3---3-3---|
    |------------------|----------------|----------------------|-------------------|


    Gtr V
    |----------------------|--------------------|
    |--17b19===============|=(17)r--------------|
    |----------------------|--------------------|
    |----------------------|--------------------|
    |----------------------|--------------------|
    |----------------------|--------------------|
    |
    | Gtr IV
    |-(24)b26==============|=(24)r--------------|
    |----------------------|--------------------|
    |----------------------|--------------------|
    |----------------------|--------------------|
    |----------------------|--------------------|
    |----------------------|--------------------|
    |
    | Gtrs I, II
    | PM| PM| PM| PM
    |----------------------|--------------------|
    |----------------------|--------------------|
    |----------------------|--------------------|
    |---9----------9-------|---9-------9---10---|
    |----------------------|--------------------|
    |----------0-0---0-0---|-------0-0---0------|


    \2/ \2/ \2/ \2/ \1
    |-15-----14-----15-----|-19-----(19)----------|
    |----------------------|----------------------|
    |----------------------|----------------------|
    |----------------------|----------------------|
    |----------------------|----------------------|
    |----------------------|----------------------|
    |
    | \2/ \2/ \2/ \2/ \1
    |-19-----17-----19-----|-24-----(24)----------|
    |----------------------|----------------------|
    |----------------------|----------------------|
    |----------------------|----------------------|
    |----------------------|----------------------|
    |----------------------|----------------------|
    |
    | PM| PM--| PM-----| PM|
    |----------------------|----------------------|
    |----------------------|----------------------|
    |----------------------|----------------------|
    |--7----------7--------|--7------------7------|
    |------5--5------5---5-|------5------5---5-5--|
    |----------------------|----------------------|


    Gtr V
    |-------19-------17-|-------15-------17-|-------14------12-|-------14------12--|
    |-15-17----13-15----|-12-13----13-15----|-10-12----8-10----|-10-12----8-10-----|
    |-------------------|-------------------|------------------|-------------------|
    |-------------------|-------------------|------------------|-------------------|
    |-------------------|-------------------|------------------|-------------------|
    |-------------------|-------------------|------------------|-------------------|
    |
    | Gtrs I, II
    | PM| PM| PM| PM PM| PM| PM| PM|
    |-------------------|-------------------|------------------|-------------------|
    |-------------------|-------------------|------------------|-------------------|
    |-------------------|-------------------|------------------|-------------------|
    |--5--------5-------|--5--------5-----7-|--4-------4-------|--4-------4--------|
    |-----3--3-----3--3-|-----3--3-----3----|-----3--3----3--3-|-----3--3----3--3--|
    |-------------------|-------------------|------------------|-------------------|


    Gtr V
    \2/ \2/
    |---------------------|-------------------|
    |---------------------|-------------------|
    |-14-------(14)-16-14-|-12----------------|
    |---------------------|-------------------|
    |---------------------|-------------------|
    |---------------------|-------------------|
    |
    | Gtr IV
    | \2/ \2/
    |---------------------|-------------------|
    |---------------------|-------------------|
    |-11-------(11)-12-11-|--9----------------|
    |---------------------|-------------------|
    |---------------------|-------------------|
    |---------------------|-------------------|
    |
    | Gtrs I, II
    | PM| PM| PM| PM
    |---------------------|-------------------|
    |---------------------|-------------------|
    |---------------------|-------------------|
    |--9---------9--------|--9-------9---10---|
    |---------------------|-------------------|
    |------0-0-------0--0-|------0-0---0------|


    \2/ \1
    |-------------------|-----------------------|
    |-------------------|-15-----(15)-----------|
    |-14-----(14)-16-14-|-----------------------|
    |-------------------|-----------------------|
    |-------------------|-----------------------|
    |-------------------|-----------------------|
    |
    | \2/ \1
    |-------------------|-----------------------|
    |-------------------|-----------------------|
    |-11-----(11)-12-11-|-16-----(16)-----------|
    |-------------------|-----------------------|
    |-------------------|-----------------------|
    |-------------------|-----------------------|
    |
    | PM| PM| PM-----| PM|
    |-------------------|-----------------------|
    |-------------------|-----------------------|
    |-------------------|-----------------------|
    |--7-------7--------|--7------------7-------|
    |----5-5-------5--5-|------5------5---5-5---|
    |-------------------|-----------------------|


    Gtr V
    |---------15-19-15-17---|-14--15-14------14-----|
    |-15---17---------------|-----------15------17--|
    |-----------------------|-----------------------|
    |-----------------------|-----------------------|
    |-----------------------|-----------------------|
    |-----------------------|-----------------------|
    |
    | \1/ \1/
    |-----------------------|-----------------------|
    |-----------------------|-----------------------|
    |--4--------------------|-(4)--------9----------|
    |-----------------------|-----------------------|
    |-----------------------|-----------------------|
    |-----------------------|-----------------------|
    |
    | PM| PM| PM| PM
    |-----------------------|-----------------------|
    |-----------------------|-----------------------|
    |-----------------------|-----------------------|
    |--5----------5---------|--5---------5-------7--|
    |-------3--3-----3--3---|------3--3-------3-----|
    |-----------------------|-----------------------|


    |---------15-19-15-17---|-14--15-14----14-------|
    |-15---17---------------|-----------15----17----|
    |-----------------------|-----------------------|
    |-----------------------|-----------------------|
    |-----------------------|-----------------------|
    |-----------------------|-----------------------|
    |
    | \1/
    |-----------------------|-----------------------|
    |-----------------------|-----------------------|
    |--7--------------------|-(7)-------------------|
    |-----------------------|-----------------------|
    |-----------------------|-----------------------|
    |-----------------------|-----------------------|
    |
    | PM| PM| PM| PM|
    |-----------------------|-----------------------|
    |-----------------------|-----------------------|
    |-----------------------|-----------------------|
    |--4----------4---------|--4---------4----------|
    |-------3--3-----3--3---|------3--3-----3--3----|
    |-----------------------|-----------------------|


    |---------19-22-19-20---|-17--19-17------17-----|
    |-19---20---------------|-----------19------20--|
    |-----------------------|-----------------------|
    |-----------------------|-----------------------|
    |-----------------------|-----------------------|
    |-----------------------|-----------------------|
    |
    | \1/ \1/
    |-----------------------|-----------------------|
    |-----------------------|-----------------------|
    |--9--------------------|-(9)-------12----------|
    |-----------------------|-----------------------|
    |-----------------------|-----------------------|
    |-----------------------|-----------------------|
    |
    | Gtrs I, II
    | PM| PM| PM| PM
    |-----------------------|-----------------------|
    |-----------------------|-----------------------|
    |-----------------------|-----------------------|
    |--9----------9---------|--9---------9------10--|
    |-----------------------|-----------------------|
    |-------0--0-----0--0---|------0--0-------0-----|


    |---------19-22-19-20---|--17--19-17----17----|
    |-19---20---------------|------------19----20-|
    |-----------------------|---------------------|
    |-----------------------|---------------------|
    |-----------------------|---------------------|
    |-----------------------|---------------------|
    |
    | \1/ \1
    |-----------------------|---------------------|
    |-----------------------|---------------------|
    |-11--------------------|-(11)----------------|
    |-----------------------|---------------------|
    |-----------------------|---------------------|
    |-----------------------|---------------------|
    |
    | PM| PM| PM| PM|
    |-----------------------|---------------------|
    |-----------------------|---------------------|
    |-----------------------|---------------------|
    |--7----------7---------|---7---------7-------|
    |-------5--5-----5--5---|-------5--5-----5--5-|
    |-----------------------|---------------------|


    |-------19-22-19-20-|-17-19-17----17----|
    |-19-20-------------|----------19----20-|
    |-------------------|-------------------|
    |-------------------|-------------------|
    |-------------------|-------------------|
    |-------------------|-------------------|
    |
    |-------15-19-15-17-|-14-15-14----14----|
    |-15-17-------------|----------15----17-|
    |-------------------|-------------------|
    |-------------------|-------------------|
    |-------------------|-------------------|
    |-------------------|-------------------|
    |
    | Gtrs I, II
    | PM| PM| PM| PM
    |-------------------|-------------------|
    |-------------------|-------------------|
    |-------------------|-------------------|
    |--5--------5-------|--5--------5-----7-|
    |-----3--3-----3--3-|-----3--3-----3----|
    |-------------------|-------------------|


    |-------19-22-19-20-|-17-19-17----17-----|
    |-19-20-------------|----------19----20--|
    |-------------------|--------------------|
    |-------------------|--------------------|
    |-------------------|--------------------|
    |-------------------|--------------------|
    |
    |-------15-19-15-17-|-14-15-14----14-----|
    |-15-17-------------|----------15----17--|
    |-------------------|--------------------|
    |-------------------|--------------------|
    |-------------------|--------------------|
    |-------------------|--------------------|
    |
    | PM| PM| PM| PM|
    |-------------------|--------------------|
    |-------------------|--------------------|
    |-------------------|--------------------|
    |--4--------4-------|--4--------4--------|
    |-----3--3-----3--3-|-----3--3-----3--3--|
    |-------------------|--------------------|


    |-------22-26-22-24-|-20-22-20----20----|
    |-22-24-------------|----------22----24-|
    |-------------------|-------------------|
    |-------------------|-------------------|
    |-------------------|-------------------|
    |-------------------|-------------------|
    |
    |-------19-22-19-20-|-17-19-17----17----|
    |-19-20-------------|----------19----20-|
    |-------------------|-------------------|
    |-------------------|-------------------|
    |-------------------|-------------------|
    |-------------------|-------------------|
    |
    | PM| PM| PM| PM
    |-------------------|-------------------|
    |-------------------|-------------------|
    |-------------------|-------------------|
    |--9--------9-------|--9--------9----10-|
    |-------------------|-------------------|
    |-----0--0-----0--0-|-----0--0-----0----|


    D.S.S. al Dbl. Coda
    \0.5
    |-------22-26-22-24-|-20-22-20-24---------|
    |-22-24-------------|---------------------|
    |-------------------|---------------------|
    |-------------------|---------------------|
    |-------------------|---------------------|
    |-------------------|---------------------|
    |
    | \0.5
    |-------19-22-19-20-|-17-19-17-19---------|
    |-19-20-------------|---------------------|
    |-------------------|---------------------|
    |-------------------|---------------------|
    |-------------------|---------------------|
    |-------------------|---------------------|
    |
    | PM| PM| PM| PM|
    |-------------------|---------------------|
    |-------------------|---------------------|
    |-------------------|---------------------|
    |--7--------7-------|--7--------7---------|
    |-----5--5-----5--5-|-----5--5-------5-5--|
    |-------------------|---------------------|


    &&
    4/4
    Gtr I
    PM------| PM PM PM PM PM
    |---------------------|---------------------|
    |---------------------|---------------------|
    |---------------------|---------------------|
    |------------9-7---10-|---10----9----9----9-|
    |---------------------|---------------------|
    |-8-8-8-8-8------8----|-8----8----8----8----|
    |
    | Gtr II
    | PM------| PM PM PM PM PM
    |---------------------|---------------------|
    |---------------------|---------------------|
    |---------------------|---------------------|
    |---------------------|---------------------|
    |-----------10-9---12-|---12---10---10---10-|
    |-8-8-8-8-8------8----|-8----8----8----8----|


    PM------| PM PM PM
    |---------------------|---------------------|
    |---------------------|---------------------|
    |---------------------|---------------------|
    |------------9-7---12-|---12---10-----------|
    |---------------------|---------------------|
    |-7-7-7-7-7------7----|-7----7----7\--------|
    |
    | PM------| PM PM PM PM PM
    |---------------------|---------------------|
    |---------------------|---------------------|
    |---------------------|---------------------|
    |-------------------9-|----9----7----7---7--|
    |-----------10-9------|---------------------|
    |-7-7-7-7-7------7----|-7----7----7----7----|


    Chorus


    Outro
    Gtrs I, II
    PM------| PM PM PM PM PM----|

    |--------------------|----------------------|----------*|
    |--------------------|----------------------|----------*|
    |--------------------|----------------------|----------*|
    |--------------------|----------------------|----------*|
    |-----------7-6---10-|---10---9---9---------|-2--------*|
    |-0-0-0-0-0-----0----|-0----0---0---0-0-0-0-|-0--------*|
     
  12. Helpmehelpyou

    Helpmehelpyou New Metal Member

    Joined:
    Jan 14, 2006
    Messages:
    3
    Likes Received:
    0
    Trophy Points:
    1
    I'm just about done with the Intro and A Breath Beneath. I'll be sure to post them upon completion.
     
  13. Mark_Palangio

    Mark_Palangio On The Fields Of Life

    Joined:
    Jul 12, 2005
    Messages:
    605
    Likes Received:
    1
    Trophy Points:
    16
    Location:
    Greensburg, PA
    How do I post a text based tab? I just figured out "Intro" and I wanted to post up the tab.
     
  14. Mark_Palangio

    Mark_Palangio On The Fields Of Life

    Joined:
    Jul 12, 2005
    Messages:
    605
    Likes Received:
    1
    Trophy Points:
    16
    Location:
    Greensburg, PA
    INTRO
    As recorded by The Absence
    (From the 2005 Album FROM YOUR GRAVE)



    Music by The Absence
    Transcribed by Mark Palangio

    Gtr I (C F Bb Eb G C) - 'Guitar 1'
    Gtr II (C F Bb Eb G C) - 'Guitar 2'

    Gtr I


    |------------------|-------------------|------------------|
    |------------------|-------------------|------------------|
    |------------------|-------------------|------------------|
    |------------------|-------------------|------------------|
    |---7h9h10-9-7h9p7-|-5-9-10-7---7h9h10-|-9-7h9p7-5-9-10-7-|
    |-0----------------|----------0--------|------------------|




    |------------------|-------------------|-----------------|--------------|
    |------------------|-------------------|-----------------|--------------|
    |------------------|-------------------|-----------------|--------------|
    |------------------|-------------------|-----------------|--------------|
    |---7h9h10-9-7h9p7-|-5-9-10-7---7h9h10-|-9-7h9p7-5---7h9h|=10-9-7h9p7-5-|
    |-8----------------|----------8--------|-----------7-----|--------------|




    ||-------------------|-------------------|------------------|
    ||o------------------|-------------------|------------------|
    ||-------------------|-------------------|------------------|
    ||-------------------|-------------------|------------------|
    ||o---7h9h10-9-7h9p7-|-5-9-10-7---7h9h10-|-9-7h9p7-5-9-10-7-|
    ||--0----------------|----------0--------|------------------|
    |
    | Gtr II
    |
    |
    ||-------------------|-------------------|------------------|
    ||o------------------|-------------------|------------------|
    ||-------------------|-------------------|------------------|
    ||----5h7h=9-7-5h7p5-|-4-7--9-5---5h7h=9-|-7-5h7p5-4-7--9-5-|
    ||o------------------|-------------------|------------------|
    ||--0----------------|----------0--------|------------------|



    4x
    |------------------|-------------------|-----------------|---------------||
    |------------------|-------------------|-----------------|--------------o||
    |------------------|-------------------|-----------------|---------------||
    |------------------|-------------------|-----------------|---------------||
    |---7h9h10-9-7h9p7-|-5-9-10-7---7h9h10-|-9-7h9p7-5---7h9h|=10-9-7h9p7-5-o||
    |-8----------------|----------8--------|-----------7-----|---------------||
    |
    |
    | 4x
    |------------------|-------------------|-----------------|---------------||
    |------------------|-------------------|-----------------|--------------o||
    |------------------|-------------------|-----------------|---------------||
    |---5h7h=9-7-5h7p5-|-4-7--9-5---5h7h=9-|-7-5h7p5-4---5h7h|==9-7-5h7p5-4--||
    |------------------|-------------------|-----------5-----|--------------o||
    |-8----------------|----------8--------|-----------------|---------------||
     
  15. Mark_Palangio

    Mark_Palangio On The Fields Of Life

    Joined:
    Jul 12, 2005
    Messages:
    605
    Likes Received:
    1
    Trophy Points:
    16
    Location:
    Greensburg, PA
    The tab looks kinda fucked for some reason when I convert it from PowerTab, but you get the idea. :Spin:
     
  16. espm1000

    espm1000 Member

    Joined:
    Jan 19, 2006
    Messages:
    47
    Likes Received:
    0
    Trophy Points:
    6
    To fix the tab put it in lucida console like this.

    INTRO
    As recorded by The Absence
    (From the 2005 Album FROM YOUR GRAVE)



    Music by The Absence
    Transcribed by Mark Palangio

    Gtr I (C F Bb Eb G C) - 'Guitar 1'
    Gtr II (C F Bb Eb G C) - 'Guitar 2'

    Gtr I


    |------------------|-------------------|------------------|
    |------------------|-------------------|------------------|
    |------------------|-------------------|------------------|
    |------------------|-------------------|------------------|
    |---7h9h10-9-7h9p7-|-5-9-10-7---7h9h10-|-9-7h9p7-5-9-10-7-|
    |-0----------------|----------0--------|------------------|




    |------------------|-------------------|-----------------|--------------|
    |------------------|-------------------|-----------------|--------------|
    |------------------|-------------------|-----------------|--------------|
    |------------------|-------------------|-----------------|--------------|
    |---7h9h10-9-7h9p7-|-5-9-10-7---7h9h10-|-9-7h9p7-5---7h9h|=10-9-7h9p7-5-|
    |-8----------------|----------8--------|-----------7-----|--------------|




    ||-------------------|-------------------|------------------|
    ||o------------------|-------------------|------------------|
    ||-------------------|-------------------|------------------|
    ||-------------------|-------------------|------------------|
    ||o---7h9h10-9-7h9p7-|-5-9-10-7---7h9h10-|-9-7h9p7-5-9-10-7-|
    ||--0----------------|----------0--------|------------------|
    |
    | Gtr II
    |
    |
    ||-------------------|-------------------|------------------|
    ||o------------------|-------------------|------------------|
    ||-------------------|-------------------|------------------|
    ||----5h7h=9-7-5h7p5-|-4-7--9-5---5h7h=9-|-7-5h7p5-4-7--9-5-|
    ||o------------------|-------------------|------------------|
    ||--0----------------|----------0--------|------------------|



    4x
    |------------------|-------------------|-----------------|---------------||
    |------------------|-------------------|-----------------|--------------o||
    |------------------|-------------------|-----------------|---------------||
    |------------------|-------------------|-----------------|---------------||
    |---7h9h10-9-7h9p7-|-5-9-10-7---7h9h10-|-9-7h9p7-5---7h9h|=10-9-7h9p7-5-o||
    |-8----------------|----------8--------|-----------7-----|---------------||
    |
    |
    | 4x
    |------------------|-------------------|-----------------|---------------||
    |------------------|-------------------|-----------------|--------------o||
    |------------------|-------------------|-----------------|---------------||
    |---5h7h=9-7-5h7p5-|-4-7--9-5---5h7h=9-|-7-5h7p5-4---5h7h|==9-7-5h7p5-4--||
    |------------------|-------------------|-----------5-----|--------------o||
    |-8----------------|----------8--------|-----------------|---------------||



    Here is Pete's posted version of Necropolis.

    ----------------------------------------------------------------------------
    ----------------------------------------------------------------------------
    ----5-2-4-5-7--------------------------------------------------------------------
    2-5-5-2-4-5-7----------------------------------------------------------------------
    2-5-3-0-2-3-5----------------------------------------------------------------------
    0-3---------------------------------------------------------------------------

    ----------------------------------------------------------------------------
    ----------------------------------------------------------------------------
    ------4----------2------------4------------------------------------------------
    --2-5---5--2--1-4---4-1---2-5--5-2-------4------------------------------------------------
    -------------------------------------2-5---5-2----------------------------------
    -0-----------0----------0----------0--------------------------------------------

    ----------------------------------------------------------------------------
    ----------------------------------------------------------------------------
    ----------------------------------------------------------------------------
    ---------------9-7--10-9---------------------------------------------------------
    -7-10-9-12-10------------10-9-6-7-9-------------------------------------------------------
    ----------------------------------------------------------------------------

    ----------------------------------------------------------------------------
    ----------------------------------------------------------------------------
    ----------------------------------------------------------------------------
    ----------------------------------------------------------------------------
    --------------------333333333333-000000000000-222222222222-333333-55555---------------------------
    000000000000-333333----------------------------------------------------------------------

    ----------------------------------------------------------------------------
    ----------------------------------------------------------------------------
    ----------------------------------------------------------------------------
    ----------------------------------------------------------------------------
    --------7h6---10--10---9---9---9---------7p6---10--10-9--12--12-------------
    0-000-0-----0---0----0---0---0---0-000-0-----0---0---0--0--0----------------


    ----------------------------------------------------------------------------
    ----------------------------------------------------------------------------
    ----------------------------------------------------------------------------
    ------------------------------------------------9--9---7-7--7---------------
    --------10h9---12-12--10--10---10---------10p9------------------------------
    8-888-8------8---8---8---8---8----7-777-7-----7---7--7--7-7-----------------

    Solo 1
    ----------------------------------------------------------------------------
    ---------------full-------------------full------------------------------------------
    -------------14^p12-14-16^-16-14-12-14^------------------------------------------------------
    14--14-16-17------------------------------------------------------------------------
    ----------------------------------------------------------------------------
    ----------------------------------------------------------------------------


    ----------------------------------------------------------------------------
    ----------------------------------------------------------------------------
    ----------------------------------------------------------------------------
    ----------------------------------------------------------------------------
    7--7---7---7---7--7---7---7-------------------------------------------------
    -00--00--00-00--00--00--00-00-----------------------------------------------

    ----------------------------------------------------------------------------
    ----------------------------------------------------------------------------
    ----------------------------------------------------------------------------
    ----------------------------------------------------------------------------
    7--7--7--7-9-6---6--6--6---3---3---3--3--5-2--2---2--2----------------------
    -00-00-00-0---00--00-00--00-00--00--00--0---00--00-00-00--------------------

    ----------------------------------------------------------------------------
    ----------------------------------------------------------------------------
    ----------------------------------------------------------------------------
    ----------------------------------------------------------------------------
    10---10---10---10--12-9---9---9---9--7---7---7--7--9-6---6--6--6--6---------
    ---00---00--00---00-----00--00-00--00--00--00-00-0-----00-00-00-00-00-------

    ----------------------------------------------------------------------------
    ----------------------------------------------------------------------------
    -----------------------------4---4----4---4----5-2--2--2--2-------------------------
    5--5--5--5--5-7-4--4--4--4----2-2--2-2-2-2--2-2---00-00-00-00-----------------------------------------
    -33-33-33-33-3---33-33-33-33-----------------------------------------------------------------
    ----------------------------------------------------------------------------

    ----------------------------------------------------------------------------
    ----------------------------------------------------------------------------
    ----------------------------------------------------------------------------
    9-14--12--14-16----------------------------------------------------------------------
    ----------------------------------------------------------------------------
    ----------------------------------------------------------------------------

    Solo 2
    ----------------------------------------------------------------------------
    ----------------------------------------------------------------------------
    ----------16-17-19-16-16h17p16-14-16-14----18^--21^-----------------------------------------------------
    -14-16-17-------------------------------16------------------------------------------
    ----------------------------------------------------------------------------
    ----------------------------------------------------------------------------

    ---------/24-------------------------------17-------14---------------14--------------
    19-17-19-------17-----------------20-------------------------17---------------17----------
    -------------19---16-17-19--16-17----17-19-----14-16---14-16----14-16---14-16-------------------------------
    --------------------------19--------------------------------------------------
    ----------------------------------------------------------------------------
    ----------------------------------------------------------------------------

    ----------------------------------------------------------------------------
    ----------------------------------------------------------------------------
    -16-17-16-14-16-17-16-21--------------------------------------------------------------------
    ----------------------------------------------------------------------------
    ----------------------------------------------------------------------------
    ----------------------------------------------------------------------------


    ----------19---17---------------------------------------------------------------
    ----17-20---20---19-20-19----19-17----------------------------------------------------------
    -19-----------------------19----------------------------------------------------
    ----------------------------------------------------------------------------
    ----------------------------------------------------------------------------
    ----------------------------------------------------------------------------

    ------19-22-19-20---19----------------------------------------------------------------
    ---20------------22---20-19-22-20-------------------------------------------------------
    21----------------------------------------------------------------------------
    ----------------------------------------------------------------------------
    ----------------------------------------------------------------------------
    ----------------------------------------------------------------------------
    __________________
     
  17. Psilocybin

    Psilocybin New Metal Member

    Joined:
    Feb 17, 2006
    Messages:
    9
    Likes Received:
    0
    Trophy Points:
    1
    helpmehlep you hows that breath beneath tab comin along. I've been lookin forward to it
     
  18. Mark_Palangio

    Mark_Palangio On The Fields Of Life

    Joined:
    Jul 12, 2005
    Messages:
    605
    Likes Received:
    1
    Trophy Points:
    16
    Location:
    Greensburg, PA
    Here's the first riff of From Your Grave...

    Tuning - C F Bb Eb G C


    Gtr I
    PM--| PM PM------| PM PM-----| PM--|

    |-----------------------------------------------------------------------|
    |-----------------------------------------------------------------------|
    |------------------------------------------7h10p7-----------------------|
    |-------8p7---7-----------8p7---7--------8--------8-------8p7---7-------|
    |-0-0-0-----0---0-0-0-0-0-----0---0-0-10------------0-0-0-----0---0-0-0-|
    |-----------------------------------------------------------------------|


    PM--| PM PM-----| PM--| PM|

    |------------------------------------------------------|
    |------------------------------------------------------|
    |------------------------------------------------------|
    |------------------------7h10p7------------------------|
    |-0-0-0-8p7---7--------8--------8-------8p7---7--------|
    |-----------0---0-0-10------------0-0-0-----0---0-0----|

    Yeah I know, it's not much, but I just started tabbing it. :Spin:
     
  19. Psilocybin

    Psilocybin New Metal Member

    Joined:
    Feb 17, 2006
    Messages:
    9
    Likes Received:
    0
    Trophy Points:
    1
    A frient of mine from metaltabs.com offered to tab any of the songs off From Your grave and make the drumtracks. Hes currently finishing I, Deciever which i'll post as soon as its don( probably by next week). Was thinking of sending him shattered next but what tab do you guys want the most.
     
  20. shattered

    shattered New Metal Member

    Joined:
    Feb 20, 2006
    Messages:
    8
    Likes Received:
    0
    Trophy Points:
    1
    My Ruin, Breath Beneath, or From Your Grave, or any other song off of the album
     

Share This Page

  • About Us

    Our music community has been around for almost 15 years and we pride ourselves on offering great metal music discussion, as well as music production and other closely related topics. We work hard every day to make sure our community is one of the best. Enjoy!
  • Like us on Facebook

  • Donate ♥

    We have worked hard for 15 years (and running) to make sure our Metal community is running fast, uses the best software, and isn't overloaded with advertising. If you love the forum as much as we love bringing it to you, please show your support with a generous donation. We really appreciate it!