This site is supported by the advertisements on it, please disable your AdBlocker so we can continue to provide you with the quality content you expect.

Welcome to Our Community

Wanting to join the rest of our members? Feel free to sign up today.

Agalloch tabs

Discussion in 'Non-Opeth Music Chat' started by Nexis, Mar 9, 2008.

  1. Nexis

    Nexis Member

    Joined:
    Feb 2, 2006
    Messages:
    109
    Likes Received:
    0
    Trophy Points:
    16
    working on the white ep. need help.

    the isle of summer:
    b|----------------------0--|
    g|-------------------------|
    d|-4--4h5-4-2h4p2---0----|
    a|-2-2------------5--2-2--|
    e|-------------------3----|

    thats all i worked out so far. the rest seems a bit tougher.

    birch black:

    e|-0-0-0-0-0-0-0--------------------------------------------5*--------------|
    b|-3/5-5-5-5/3-0-0-0-0-0-0-0-0-----------------------------5*--------------|
    g|----------------2/4-4-4-4/2-0-0-0-0-0-0-0-0--------------5*--------------|
    d|-------------------------------2/4-4-4-4/5-5-2-2-2-2---2----2-2-2------2-|
    a|----------------------------------------------3-3-3-3h5-2----3-3-3-3h5-2-|
    d|---------------------------------------------------------------------------|

    e|-0-0-0-0-0-0-0-------------------------------------------5*--------------|
    b|-3/5-5-5-5/3-0-0-0-0-0-0--------------------------------5*--------------|
    g|----------------5-5-5-5-4-----0-0-0-0-0-0---------------5*--------------|
    d|-------------------------------2-2-2-2/4-0---2-2-2-2---2----2-2-2------2-|
    a|----------------------------------------------3-3-3-3h5-2----3-3-3-3h5-2-|
    d|---------------------------------------------------------------------------|

    e|-------0-0-0--------0-0-0-------0-0-0--------|
    b|-------0-0-0--------0-0-0-------0-0-0--------|
    g|-------0-0-0--------0-0-0-------0-0-0--------|
    d|-2-2-2-2-2-2-2-2-2-2-2-2-2-2-2-2-2-2-0-0-0-|
    a|-2-2-2-2-2-2-2-2-2-2-2-2-2-2-2-2-2-2-0-0-0-|
    d|-2-2-2-2-2-2-2-2-2-2-2-2-2-2-2-2-2-2-0-0-0-|

    e|-------------------------|
    b|-------------------------|
    g|-------------------------|
    d|-------------------------|
    a|-2-9-7-5-4h5-5-5-0-0-0-|
    d|-2-9-7-5-4h5-5-5-0-0-0-|

    e|-12(tremolo)-15-|

    those are all the main parts I think theyre mostly right. missing a few bits here and there, not sure about the distorted riff.

    pantheist:

    e|------------------|
    b|-0-0--------------|
    g|-2-2-2/4-4/5-5-0-|
    d|-2-2-------------|
    a|-0-0-------------|
    e|-----------------|

    birch white:

    a|-2-0---|
    e|-----3-| G

    a|--0-2-|
    e|-3----| Bm

    A

    figured out a bit more but its really hard to tell the guitar apart, so i might be missing something or some of it is wrong.

    all i got so far. the part with the (what is that? bagpipes?) I cant figure out yet.

    the A goes into Am, Dm, G, ?, Am, Dm, G, ?, Am?, G?, F, Am?, G?, F then the ending i havent tried yet.

    sowilo rune:

    C?

    0
    3
    0
    2
    3
    x

    D?/Dsus2?

    0--2
    3--3
    0--0
    0--0
    x--x
    x--x



    thats alll i got for the EP so far. birch black is like 90% though. any help?
     
  2. Frosties

    Frosties Blind @ heart

    Joined:
    Mar 28, 2004
    Messages:
    2,195
    Likes Received:
    3
    Trophy Points:
    38
    Location:
    Israel
    I don't even want to glimpse at that for more than a second until the EP arrives!
     
  3. beast from the east

    Joined:
    Apr 6, 2007
    Messages:
    1,622
    Likes Received:
    0
    Trophy Points:
    36
    Location:
    Philly
    Oh man, The White EP is brilliant!!! I got it Friday and haven't stopped listening to it. Thanks for doing this, I'm anxious to start playing a few of these songs.
     
  4. affinityband

    affinityband Member

    Joined:
    Mar 12, 2005
    Messages:
    5,457
    Likes Received:
    4
    Trophy Points:
    38
    Location:
    Brackley, England
    is it not out yet? Ive had it for ages lmao
     
  5. beast from the east

    Joined:
    Apr 6, 2007
    Messages:
    1,622
    Likes Received:
    0
    Trophy Points:
    36
    Location:
    Philly
    well, it was released 2/29...
     
  6. in_my_time_of_disease

    in_my_time_of_disease Whipping Post

    Joined:
    May 29, 2006
    Messages:
    2,250
    Likes Received:
    0
    Trophy Points:
    36
    Location:
    Melbourne
    I've had the leak for a fair while. Not sure how long but at least a month. Loved it; hopefully it gets re-released as I didn't pre order it and the 2000 went fast.
     
  7. Frosties

    Frosties Blind @ heart

    Joined:
    Mar 28, 2004
    Messages:
    2,195
    Likes Received:
    3
    Trophy Points:
    38
    Location:
    Israel
    Ok, so it arrived today, so hopefully I'll have time over the next few days to go over the tabs. Thanks for posting this.
     
  8. Nexis

    Nexis Member

    Joined:
    Feb 2, 2006
    Messages:
    109
    Likes Received:
    0
    Trophy Points:
    16
    just saw agalloch twice in the PNW. psyched as hell to learn more. someone help out with these if you can
     
  9. wankerness

    wankerness Member

    Joined:
    Dec 3, 2002
    Messages:
    1,652
    Likes Received:
    8
    Trophy Points:
    38
    Location:
    Seattle
    So does the new ep suck as bad as the grey ep? Worst 8 dollars I ever spent.
     
  10. BurningSky

    BurningSky rxbandits.com

    Joined:
    Jan 13, 2004
    Messages:
    1,192
    Likes Received:
    5
    Trophy Points:
    38
    It's definitely not worth having. Stay tuned for the next full-length.
     
  11. Nexis

    Nexis Member

    Joined:
    Feb 2, 2006
    Messages:
    109
    Likes Received:
    0
    Trophy Points:
    16
    o_O
    way way worth it. great release with amazing direction.
     
  12. Blake

    Blake ekalB

    Joined:
    Aug 17, 2005
    Messages:
    1,181
    Likes Received:
    0
    Trophy Points:
    36
    definitely worth it, and no it's nothing like the grey ep. i almost enjoyed it more than ashes against the grain
     
  13. BurningSky

    BurningSky rxbandits.com

    Joined:
    Jan 13, 2004
    Messages:
    1,192
    Likes Received:
    5
    Trophy Points:
    38
    agree to disagree.
     
  14. opeth8

    opeth8 My Arms, Your Casket

    Joined:
    Sep 29, 2005
    Messages:
    738
    Likes Received:
    0
    Trophy Points:
    16
    Location:
    USA
    I enjoyed it. These guys are great !
    Hope to see them live... some day ?
     
  15. flemflames

    flemflames Member

    Joined:
    Feb 10, 2006
    Messages:
    157
    Likes Received:
    0
    Trophy Points:
    16
    Location:
    belgium
    ===






    Sowilo Rune
    Code:
    e|----0--------0--------0--------0----|
    B|----3--------5--------7--------5----|
    G|----0--------0--------0--------0----|
    D|----2--------4--------5--------4----|
    A|----3--------5--------7--------5----|
    E|----x--------x--------x--------x----|
    
    Great song :)






    ===
     
  16. wankerness

    wankerness Member

    Joined:
    Dec 3, 2002
    Messages:
    1,652
    Likes Received:
    8
    Trophy Points:
    38
    Location:
    Seattle
    I think you just tabbed fuel - shimmer.
     
  17. flemflames

    flemflames Member

    Joined:
    Feb 10, 2006
    Messages:
    157
    Likes Received:
    0
    Trophy Points:
    16
    Location:
    belgium
    I think not.
    Someone else give me some feedback!
    I think it sounds very accurate.
     
  18. BurningSky

    BurningSky rxbandits.com

    Joined:
    Jan 13, 2004
    Messages:
    1,192
    Likes Received:
    5
    Trophy Points:
    38
    Dude, the whole song is four chords basically. If you can't figure that out, you shouldn't be offering tabs.
     
  19. wankerness

    wankerness Member

    Joined:
    Dec 3, 2002
    Messages:
    1,652
    Likes Received:
    8
    Trophy Points:
    38
    Location:
    Seattle
    I haven't heard it. That's just the exact same main chord progression as the pop hit shimmer. :D
     
  20. Bleakh

    Bleakh Member

    Joined:
    Aug 15, 2008
    Messages:
    68
    Likes Received:
    0
    Trophy Points:
    6
    Location:
    Germany
    Does anybody have the tabs for "Odal"? I just found Guitar Pro tabs and I don´t have that program.
    I guess they are pretty simple, but being a beginner I can´t figure them out yet.
     

Share This Page