This site is supported by the advertisements on it, please disable your AdBlocker so we can continue to provide you with the quality content you expect.

I Want You!

Join Symphony X and discover tons of other great Metal forums, sign up today!

Odyssey-tabs !!

Discussion in 'Symphony X (Unofficial)' started by brokkel, Nov 19, 2002.

  1. brokkel

    brokkel Member

    Joined:
    Aug 11, 2002
    Messages:
    63
    Likes Received:
    0
    Trophy Points:
    6
    Are there any available yet , or has anyone tabbed a lick or so from this masterpiece , I've tabbed the first part of the turning , so anyone who has something tabbed share it here pleaze ;)

    ||----------------------------------|---------------------------------|
    ||o---------------------------------|---------------------------------|
    ||----------------------------------|---------------------------------|
    ||------------------------------4---|-5-4-7-5-8-7-5-4---5-------1-----|
    ||o-3h5-5-5-3h5-5-5-5-5-6-5-3-----6-|-----------------6---6-5-3---3-0-|
    ||----------------------------6-----|---------------------------------|


    |---------------------------------|------------------------||
    |---------------------------------|-----------------------o||
    |---------------------------------|------------------------||
    |-----------------------------4---|-5-4-7-5-4---4---7-6-7--||
    |-3h5-5-5-3h5-5-5-5-5-6-5-3-----6-|-----------6---6-5-6-5-o||
    |---------------------------6-----|-----------------5-4-5--||


    ||---------||
    ||---------||
    ||---------||
    ||-7-6-----||
    ||-5-6-----||
    ||-5-4-----||


    ||----------------------------------|---------------------------------|
    ||o---------------------------------|---------------------------------|
    ||----------------------------------|---------------------------------|
    ||----------------------------------|---------------------------------|
    ||o---------------------------------|-2-1-4-2-5-4-2-1---2-----------2-|
    ||--0h2-2-2-0h2-2-2-2-2-3-2-5-3-7-5-|-----------------3---3-2-0-3-0---|


    |---------------------------------|------------------------------||
    |---------------------------------|-----------------------------o||
    |---------------------------------|------------------------------||
    |---------------------------------|-----------------11-10-11-----||
    |---------------------------------|-2-1-4-2-1---1----9-10--9----o||
    |-0h2-2-2-0h2-2-2-2-2-3-2-5-3-7-5-|-----------3---3--9--8--9-----||


    ||----------------------------|
    ||----------------------------|
    ||----------------------------|
    ||-11-10-11--10-11-11-10------|
    ||--9-10--9--10--9--9-10------|
    ||--9--8--9---8--9--9--8------|


    ||------------------------------------------------------------------||
    ||o----------------------------------------------------------------o||
    ||------------------------------------------------------------------||
    ||--------3--------3--------3--------3--------3---------------------||
    ||o-3-2-3-2--3-2-3-2--3-2-3-2--3-2-3-2--3-2-3-2--3-2-3-------------o||
    ||--1-0-1----1-0-1----1-0-1----1-0-1----1-0-1----1-0-1-4-4-4-3-3-3--||
    Paste in Wordpad
     
  2. metropolis2k X

    Joined:
    Jul 19, 2002
    Messages:
    144
    Likes Received:
    0
    Trophy Points:
    16
    Location:
    Surrey, England
    If you put [ code] and [ /code] either side of that (without the spaces) it makes it easier to read:

    Code:
    ||----------------------------------|---------------------------------| 
    ||o---------------------------------|---------------------------------| 
    ||----------------------------------|---------------------------------| 
    ||------------------------------4---|-5-4-7-5-8-7-5-4---5-------1-----| 
    ||o-3h5-5-5-3h5-5-5-5-5-6-5-3-----6-|-----------------6---6-5-3---3-0-| 
    ||----------------------------6-----|---------------------------------| 
    
    
    |---------------------------------|------------------------|| 
    |---------------------------------|-----------------------o|| 
    |---------------------------------|------------------------|| 
    |-----------------------------4---|-5-4-7-5-4---4---7-6-7--|| 
    |-3h5-5-5-3h5-5-5-5-5-6-5-3-----6-|-----------6---6-5-6-5-o|| 
    |---------------------------6-----|-----------------5-4-5--|| 
    
    
    ||---------|| 
    ||---------|| 
    ||---------|| 
    ||-7-6-----|| 
    ||-5-6-----|| 
    ||-5-4-----|| 
    
    
    ||----------------------------------|---------------------------------| 
    ||o---------------------------------|---------------------------------| 
    ||----------------------------------|---------------------------------| 
    ||----------------------------------|---------------------------------| 
    ||o---------------------------------|-2-1-4-2-5-4-2-1---2-----------2-| 
    ||--0h2-2-2-0h2-2-2-2-2-3-2-5-3-7-5-|-----------------3---3-2-0-3-0---| 
    
    
    |---------------------------------|------------------------------|| 
    |---------------------------------|-----------------------------o|| 
    |---------------------------------|------------------------------|| 
    |---------------------------------|-----------------11-10-11-----|| 
    |---------------------------------|-2-1-4-2-1---1----9-10--9----o|| 
    |-0h2-2-2-0h2-2-2-2-2-3-2-5-3-7-5-|-----------3---3--9--8--9-----|| 
    
    
    ||----------------------------| 
    ||----------------------------| 
    ||----------------------------| 
    ||-11-10-11--10-11-11-10------| 
    ||--9-10--9--10--9--9-10------| 
    ||--9--8--9---8--9--9--8------| 
    
    
    ||------------------------------------------------------------------|| 
    ||o----------------------------------------------------------------o|| 
    ||------------------------------------------------------------------|| 
    ||--------3--------3--------3--------3--------3---------------------|| 
    ||o-3-2-3-2--3-2-3-2--3-2-3-2--3-2-3-2--3-2-3-2--3-2-3-------------o|| 
    ||--1-0-1----1-0-1----1-0-1----1-0-1----1-0-1----1-0-1-4-4-4-3-3-3--|| 
    
    (It's Tom Manning from the PoS board btw :))
     
  3. brokkel

    brokkel Member

    Joined:
    Aug 11, 2002
    Messages:
    63
    Likes Received:
    0
    Trophy Points:
    6
    hehe , I thought that nick looked familiar !!

    Cumon dudes !! Nobody out there who has tabbed the whole "Odyssey" , You true fans dissapoint me a litlle I must say :D
     
  4. Yngvai X

    Yngvai X Dark Emperor

    Joined:
    Jul 18, 2002
    Messages:
    3,468
    Likes Received:
    12
    Trophy Points:
    38
    Location:
    Woodland Park, NJ
    Hey, not to be picky, but I tabbed that too and the last bar of the intro riff is wrong...hes doing pull offs for that last part so the final bar on should look like this:

    Code:
    
    
    -----------------------------------------------
    -----------------------------------------------
    -----------------------------------------------
    -5-4-7-5-8-7-5-4--------------------------
    ----------------------6h9p6p0-5h6p5p0-
    ----------------------------------------------
    
    
    hope that helps

    btw, Ive tabbed quite a bit of the album already including two full songs, but Im not gonna make em available until Im positive they are 100% perfect :D
     
  5. ElvenShadow

    ElvenShadow Guilty Gear

    Joined:
    Jul 21, 2002
    Messages:
    338
    Likes Received:
    0
    Trophy Points:
    16
    Location:
    Japan
    Has anyone done any bass tabs? Id love to get a bass tab for Awakenings.
     
  6. brokkel

    brokkel Member

    Joined:
    Aug 11, 2002
    Messages:
    63
    Likes Received:
    0
    Trophy Points:
    6
    oow Allright dude !! That's the spirit !!

    Say if you need a second opinion wether the tabs are accurate you can send them to me , and I'll try to correct them if nessecairy :D
    Brek_zarith@hotmail.com
    I have a sharp ear in that sort of matter ....
     
  7. Ultimate_Symphony

    Ultimate_Symphony Rusted Angel

    Joined:
    Jul 18, 2002
    Messages:
    4,411
    Likes Received:
    217
    Trophy Points:
    63
    hehe if I was that good on guitar I would surely tab the whole thing ;) :p btw I play guitar but i'm much much better on keys :D
     
  8. EyeAm

    EyeAm Time is now

    Joined:
    Aug 1, 2002
    Messages:
    124
    Likes Received:
    0
    Trophy Points:
    16
    Location:
    Richmond, VA
    I got my bass teacher to do most of the beginning of Awakenings... I'll post that whenever I'm sure it's right.
     
  9. Mike Lepond Wannabe

    Mike Lepond Wannabe New Metal Member

    Joined:
    Jul 21, 2002
    Messages:
    15
    Likes Received:
    1
    Trophy Points:
    3
    heres the bass line at the start of awakenings.


    G -------------------------------------------------
    D ---------19---------19----------19------------
    A -----19---------19----------19-----19--------
    E -17---------17----------17--------------------

    G ---------------------------------------------------------------------------------
    D -19--21--22s24--22--21--22--21--19--21--19h21p19s17--19--20-
    A ---------------------------------------------------------------------------------
    E ---------------------------------------------------------------------------------

    G ---------------------------------------------------------------------------------
    D -20--22--20--22s24---------------------------------------------------------
    A -----------------------------15h17-15-13-12-15-13-12-----13-12-------
    E ---------------------------------------------------------------15----------13--

    feel free to make any requests
     
  10. Naugladur

    Naugladur New Metal Member

    Joined:
    Nov 20, 2002
    Messages:
    8
    Likes Received:
    0
    Trophy Points:
    1
    Location:
    Germany
    first: Hi@all SX fans. I'm from germany AND SYMPHONY X RULES!
    and sorry if my english smetimes sounds not well, I'm learning...

    does anyone know Guitar Pro 3? its a prgramm with which you can write your tabs down and tehn listen to them but only in midi quality.
    At www.mysongbook.com there were many many tabs of almost every band! but you can only hear them if you have guitar pro 3.
    At the moment I'm trying to tab the song "The Odyssey".
    It's very very difficult...I think you can understand this.
    Here my question: if anyone has Guitar Pro and wants to help me by tabing the odyssey, he/she should mail me at phoenixfff@gmx.de
    thx
     
  11. brokkel

    brokkel Member

    Joined:
    Aug 11, 2002
    Messages:
    63
    Likes Received:
    0
    Trophy Points:
    6
    Nice Nice !!! I use mostly Powertab , that's in my opinion a lil' bit easier to use ... but I'm willing to lend you a hand , If everyone Tabs one riff this little should be washed in now time :p Damn that Dutch saying sounds kinda stupid in English ...
     
  12. Pharaoh

    Pharaoh Member

    Joined:
    Oct 16, 2002
    Messages:
    884
    Likes Received:
    1
    Trophy Points:
    18
    Location:
    LITITZ, PA
    RE: brokkel..."I have a sharp ear in that sort of matter ...." (Well, I suppose it's better than having a 'flat' ear!) :lol: Sorry, I couldn't resist.:D
    Anybody find Lepond's bass really interesting on The Odyssey? I find his style amazing. I'm going to intently watch his fingers tonight!
     
  13. Ayperus

    Ayperus New Metal Member

    Joined:
    Nov 21, 2002
    Messages:
    2
    Likes Received:
    0
    Trophy Points:
    1
    here is the tapping section from "Inferno":>
    >------------------------------------------------------------------------------
    >------------------------------------------------------------------------------
    >-------------------------------------------15-17-21-17-15---------------------
    >------------------------------------------------------------------------------
    >--22-19-22-19-15-23-19-23-19-15--15-19-22-----------------22-19-15-19-22------
    >------------------------------------------------------------------------------
    > T T T T T T T T
    >
    >-------------15-18-20-18-15---------------------15-18-21-18-15----------------
    >------------------------------------------------------------------------------
    >--15-17-21-------------------21-17-15-15-18-21------------------21-18-15------
    >------------------------------------------------------------------------------
    >------------------------------------------------------------------------------
    >------------------------------------------------------------------------------
    > T T T T T T
    >
    >------------12-15-18-15-12----------------------------------------------------
    >---------------------------------------------8-11-14-11-8---------------------
    >--12-15-18-----------------18-15-12-------------------------------------------
    >-------------------------------------8-11-14---------------14-11-8-11-14------
    >------------------------------------------------------------------------------
    >------------------------------------------------------------------------------
    > T T T T T T
    >
    >--------------------12-15-18--------------------------------------------------
    >--8-11-14------------------------------8-11-14--------------------------------
    >-----------12-15-18-------------------------------0---------------------------
    >------------------------------8-11-14-----------------------------------------
    >------------------------------------------------------------------------------
    >------------------------------------------------------------------------------
    > T T T T T
     
  14. The Yngster

    The Yngster Member

    Joined:
    Jun 7, 2002
    Messages:
    2,129
    Likes Received:
    5
    Trophy Points:
    38
    Location:
    New York, USA

    I just downloaded the demo and its a wonderful program! It is so helpful, its too bad that the demo won't let me print out the tabs :( Maybe I'll fork over the thirty or forty dollars when I'm ready to start writing my own music.
     
  15. Dtrule

    Dtrule Member

    Joined:
    Jul 18, 2002
    Messages:
    93
    Likes Received:
    0
    Trophy Points:
    6
    Code:
    Q=152
     5/4                      7/8
      Gtr I
             PM   PM-|     PM               PM   PM
       Q  E  E E  Q   E E  E   S  S S  S E  E E  E  E
    |------------------------|-------------------------|
    |-----9-------------9----|-9-10-9----9---------[9]-|
    |------------------------|--------11---------------|
    |-11----11---11--11---11-|-------------11---11-----|
    |------------------------|-------------------------|
    |------------------------|-------------------------|
    
    
     5/4
       PM         PM         PM|     PM
       E  E   E   E  E   E   E  E E  E
    |-----------------------------------|
    |----[9]-[8]----[8]-[7]-------9-----|
    |-----------------------------------|
    |-11---------11---------11-11---11--|
    |-----------------------------------|
    |-----------------------------------|
    
    
          PM|       ~~~~
       E  E  E Q  E H
    |------------------|
    |-10-------8--8-9--|
    |------------------|
    |----11-11---------|
    |------------------|
    |------------------|
    
    
     ~~~~~~
                          |------6-------|  |------6-------|  |------6-------|  |--3--|
      +E     E      +E    S  S  S  S  S  S  S  S  S  S  S  S  S  S  S  S  S  S  S  S  S
    |-------14b16==(14)r-16-14-13-14-16-14-13--------------------------------------------|
    |-(9)\------------------------------------15-14-12-14-15-14-12-----------------------|
    |--------------------------------------------------------------14-13-11-10-13-11-10--|
    |------------------------------------------------------------------------------------|
    |------------------------------------------------------------------------------------|
    |------------------------------------------------------------------------------------|
    
    
     7/8                                                5/4                4/4
                                                                             \1
                                                          ~~~~~~~~~
       |------6------| |-3--|      |----6-----|  |-3-|
       S  S S  S  S  S S  S S +E   S S S  S S S  S S S    H.  +E    E  Q    +W
    |--------------------------------------------------|------------------|--------|
    |--------------------------------------------------|------------------|--------|
    |--------------------------------------------------|------------------|--------|
    |-12-11-9-11-12-11-9-------------------------------|---------------2--|-(2)----|
    |--------------------11-9-(9)-11-9-8---------------|---------------2--|-(2)----|
    |------------------------------------10-9-7-10-9-7-|-[9]--(9)\--9-----|--------|
    let's try...
     
  16. Dtrule

    Dtrule Member

    Joined:
    Jul 18, 2002
    Messages:
    93
    Likes Received:
    0
    Trophy Points:
    6
    guess what it is! eheh
     
  17. Dtrule

    Dtrule Member

    Joined:
    Jul 18, 2002
    Messages:
    93
    Likes Received:
    0
    Trophy Points:
    6
    Code:
    Q=152
       4/4
        Gtr I
         S  S  S  S S S S S  S S S S S S S S
    ||----------------------------------------||
    ||o--------------------------------------o||
    ||--13-12-10-12-0-0-0-0-10-8-7-0-8-7-5-0--||
    ||----------------------------------------||
    ||o--------------------------------------o||
    ||----------------------------------------||
    
    
          S S S S S S S S S S S S S S S S
    |-||-----------------------------------||
    |-||o---------------------------------o||
    |-||--7-5-4-0-1-0-1-0-0-0-1-0-1-4-1-0--||
    |-||-----------------------------------||
    |-||o---------------------------------o||
    |-||-----------------------------------||
    
    
       S  S  S  S S S S S  S S S S S S S S
    |--------------------------------------|
    |--------------------------------------|
    |-13-12-10-12-0-0-0-0-10-8-7-0-8-7-5-0-|
    |--------------------------------------|
    |--------------------------------------|
    |--------------------------------------|
    
    
       S  S  S  S S S S S  S S S S  S  S S S
    |----------------------------------------|
    |----------------------------------------|
    |-13-12-10-12-0-0-0-0-10-8-7-0-12-10-8-0-|
    |----------------------------------------|
    |----------------------------------------|
    |----------------------------------------|
    
    
       S  S  S  S  S  S  S  S  S  S  S  S  S  S  S  S
    |-------------------16-15-13----------------------|
    |-15-13-12-------------------16-15-13-15-13-------|
    |----------13-12----------------------------16-13-|
    |----------------15-------------------------------|
    |-------------------------------------------------|
    |-------------------------------------------------|
    
    
       S  S  S  S  S  S  S  S  S  S  S  S  S  S  S  S
    |-------------------------------------------------|
    |-------------------------------------------------|
    |-12----13-12----------------------------------12-|
    |----15-------15-13-12----------------12-13-15----|
    |----------------------15-14----14-15-------------|
    |----------------------------15-------------------|
    
    
     5/4
       S  S  S  S S S S S S S S S  S S S S  S  S S S
    |------------------------------------------------|
    |------------------------------------------------|
    |-13-12-10-12-0-0-0-0-8-7-5-0-10-8-7-0-12-10-8-0-|
    |------------------------------------------------|
    |------------------------------------------------|
    |------------------------------------------------|
    
    
     7/8
       S  S  S  S S S S S  S  S  S  S  S  S
    |----------------------------------------|
    |----------------------------------------|
    |-13-12-10-12-0-0-0-0-19-17-16-13-12-10--|
    |----------------------------------------|
    |----------------------------------------|
    |----------------------------------------|
    
    
     5/4
       S  S  S  S S S S S S S S S  S S S S  S  S S S
    |------------------------------------------------|
    |------------------------------------------------|
    |-13-12-10-12-0-0-0-0-8-7-5-0-10-8-7-0-12-10-8-0-|
    |------------------------------------------------|
    |------------------------------------------------|
    |------------------------------------------------|
    
    
       S  S  S  S S S S S  S  S  S  S  S  S  S  S  S  S  S  S
    |---------------------16-15-13-----------------------------|
    |------------------------------16-15-13-15-13--------------|
    |-13-12-10-12-0-0-0-0-------------------------16-13-12-----|
    |------------------------------------------------------15--|
    |----------------------------------------------------------|
    |----------------------------------------------------------|
    
    
       S  S  S  S S S S S S S S S  S S S S  S  S S S
    |------------------------------------------------|
    |------------------------------------------------|
    |-13-12-10-12-0-0-0-0-8-7-5-0-10-8-7-0-12-10-8-0-|
    |------------------------------------------------|
    |------------------------------------------------|
    |------------------------------------------------|
    
    
     7/8
       S  S  S  S S S S S  S  S  S  S  S  S
    |---------------------------------------|
    |---------------------15-13-12----------|
    |-13-12-10-12-0-0-0-0----------13-12-10-|
    |---------------------------------------|
    |---------------------------------------|
    |---------------------------------------|
    
    
     5/4
       S  S  S  S S S S S S S S S  S S S S  S  S S S
    |------------------------------------------------|
    |------------------------------------------------|
    |-13-12-10-12-0-0-0-0-8-7-5-0-10-8-7-0-12-10-8-0-|
    |------------------------------------------------|
    |------------------------------------------------|
    |------------------------------------------------|
    
    
                                                               4/4
       S  S  S  S S S S S  S  S  S  S  S  S  S  S  S  S  S  S    S  S  S  S  S  S  S  S S  S  S S  Q
    |---------------------16-15-13----------------------------|-----------------------------------------|
    |------------------------------16-15-13-15-13-------------|-----------------------------------------|
    |-13-12-10-12-0-0-0-0-------------------------16-13-12----|-13-12-10--------------------------------|
    |------------------------------------------------------15-|----------13-12-10-12-10-9---------------|
    |---------------------------------------------------------|---------------------------11-10-8-10----|
    |---------------------------------------------------------|-----------------------------------------|
    enough.. you'll see the rest in powertab very soon ;)
     
  18. brokkel

    brokkel Member

    Joined:
    Aug 11, 2002
    Messages:
    63
    Likes Received:
    0
    Trophy Points:
    6
    you are still the king of Powertab DTrule !!!
     
  19. Yngvai X

    Yngvai X Dark Emperor

    Joined:
    Jul 18, 2002
    Messages:
    3,468
    Likes Received:
    12
    Trophy Points:
    38
    Location:
    Woodland Park, NJ
    that tapping part for inferno is wrong at the very end. It doesnt go down the 8th fret on the 4th string, he stays at the 13th fret, also he does some jumping between the low e and high e. I gave my powertab of it to Romeo last night, so hopefully I'll find out how correct I am hehe.
     
  20. Dtrule

    Dtrule Member

    Joined:
    Jul 18, 2002
    Messages:
    93
    Likes Received:
    0
    Trophy Points:
    6
    i suppose you meant "tabbed" instead of tapping, since there's no tapping in there :)

    thanx for your correction! actually elsewhere i fail to tab the correct position now that i see my tab again...

    there still something else to do.. by now i tabbed eve the second solo (the first solo is the first post of mine in this thread).

    hope my powertab will be available in a day or two.
     

Share This Page